PrimaNota.ru - самый крупный в мире бесплатный архив песенных текстов, аккордов, табулатур и нот


Finger Eleven - So-so Suicide - текст песни, таба, видео

Регистрация Запомнить меня
Войти через:  Facebook Google Twitter Vk Yandex Mail.ru

Finger Eleven - So-so Suicide - текст песни, таба, видео

Печатать
Просмотров: 159
LISTEN TO THE SONG FOR THE TIMING AND VARIATION OF THE NOTES
Effects - Distortion & Octaver
Octave Pedal Used For The Song - Digitech Whammy Pedal
James Blacks's Guitar Parts
youtube.com/AliveInTheAfterworld

Verse: Distortion & Octaver
E|-----------|
B|-----------|
G|-----------|
D|-9-7-7brbr-| Octaver -1 On The Bending And Releasing 7 Only
A|-7-5-------|
D|-----------|

E|-----------|
B|-----------|
G|-----------|
D|-9-7-------| No Octaver On This Part
A|-7-5-------|
D|-----7brbr-|

Lead Fill: Distortion
E|------------------15br-15~/--|
B|-15b-15-15b-15p12------------|
G|-----------------------------|
D|-----------------------------|
A|-----------------------------|
D|-----------------------------|

Chorus: Octaver -1
E|-0--|----------------------------------------------------------|
B|-0--|----------------------------------------------------------|
G|-0--|----------------------------------------------------------|
D|-2--|-7-5-7\--7-5-7-9-7-5-7-9-7-5-3-2-3\--3-2-3-5-3-2-3-5------|
A|-3--|-7-5-7\--7-5-7-9-7-5-7-9-7-5-3-2-3\--3-2-3-5-3-2-3-5------|
D|----|-7-5-7\--7-5-7-9-7-5-7-9-7-5-3-2-3\--3-2-3-5-3-2-3-5-7br--|

Interlude- Semi-Distortion & Octaver
E|----------------------------------------------|
B|----------------------------------------------|
G|---9--9\7/9--9\7/9--9\7/9--9--9\7/9--9\7/9----|
D|---7--7\5/7--7\5/7--7\5/7--7--7\5/7--7\5/7-7--|
A|-0--------------------------------------------|
D|----------------------------------------------|

Chorus 2: Distortion & Octaver (Play Normal Chorus Twice Then Play This)
E|------|----------------------------------------------------------------|
B|-0--0-|----------------------------------------------------------------|
G|-0--0-|----------------------------------------------------------------|
D|-2--4-|-7-5-7------7-5-7-9-7-5-7-9-7-5-3-2-3------3-2-3-5-3-2-3-5------|
A|-3--3-|-7-5-7------7-5-7-9-7-5-7-9-7-5-3-2-3------3-2-3-5-3-2-3-5------|
D|------|-7-5-7/19~\-7-5-7-9-7-5-7-9-7-5-3-2-3/15~\-3-2-3-5-3-2-3-5-7br--|

Interlude 2: Semi-Distortion (Do The First Interlude For While Then Play This)
E|-5~---7~---|
B|-5~---7~---|
G|-5~---7~---|
D|-----------|
A|-----------|
D|-----------|

Добавлено: 13.05.2012
Другие материалы по этой песне:
  • Аккорды и текст

Страница создана 11.03.2012
http://primanota.ru/finger-eleven/so-so-suicide-chords.htm
Привет, Гость.
Предлагаем пройти революционный курс по гитаре.
Подарок от PrimaNota.Ru, забирай!