PrimaNota.ru - самый крупный в мире бесплатный архив песенных текстов, аккордов, табулатур и нот


Finger Eleven - Slow Chemical - аккорды и текст, таба, видео

Регистрация Запомнить меня
Войти через:  Facebook Google Twitter Vk Yandex Mail.ru

Finger Eleven - Slow Chemical - аккорды и текст, таба, видео

Печатать
Просмотров: 244
Slow Chemical
Finger Eleven
Finger eleven 'Slow Chemical"


Written by: Finger Eleven


Transcribed by: Sean McGinty (sean_talon@hotmail.com)

tuning (Drop C) : Cgcfad

organ intro

d-----------------------------------------------------------------
a-1~----3~----5~----2~----3~----5~----1~----3~--------------------
f-----------------------------------------------------------------
c-----------------------------------------------------------------
g-----------------------------------------------------------------
C-----------------------------------------------------------------

guitar (1) intro	guitar (2) intro	both guitars

d------------		d---------		d-----------------------
a------------		a---------		a-----------------------
f--7s8s7--6--		f---------		f-----------------------
c--0------0--		c--0---3--		c--7-7-7---7-7-7---7-7--
g------------		g--0---3--		g--5-5-5---5-5-5---5-5--
C------------ 		C--0---3--		C-05-5-5--05-5-5---5-5--


verses				2nd verse

d--------------------		--------
a----------------10--		--------
f------7------7--9---		--------
c--7-7-5--7-7-7--7---		-999----
g--5-5-5--5-5-5--7---		-999----
C--5-5-5--5-5-5--7---		-999----


chorus

d------------------------------
a------------------------------
f------------------------------
c--7-7-7--7-7-7--7--999--7777--
g--5-5-5--5-5-5--7--999--7777--
C--5-5-5--5-5-5--5--999--7777--


bridge

d------------------------------
a------------------------------
f--77777--99999--55555--44444--
c--XXXXX--XXXXX--XXXXX--XXXXX--
g--55555--77777--33333--22222--
C------------------------------

     
Добавлено: 30.06.2013
Другие материалы по этой песне:

Страница создана 06.03.2012
http://primanota.ru/finger-eleven/slow-chemical-chords.htm
Привет, Гость.
Предлагаем пройти революционный курс по гитаре.
Подарок от PrimaNota.Ru, забирай!