PrimaNota.ru - самый крупный в мире бесплатный архив песенных текстов, аккордов, табулатур и нот


Finde - Mas De Cien Palabras Para Ti - таба, видео

Регистрация Запомнить меня
Войти через:  Facebook Google Twitter Vk Yandex Mail.ru

Finde - Mas De Cien Palabras Para Ti - таба, видео

Печатать
Просмотров: 141
artista---------------------/FINDE/

cancion---------------------/MAS DE 100 PALABRAS PARA TI/

album-----------------------/NADA ES COMO AYER/



(0:00-0:13)
|-------14-------12-------14-------12-------14----------------14-------12|
|-10-10----10-10----10-10----10-10----10-10----10-10-10-10-10----10-10---|
|------------------------------------------------------------------------|
|------------------------------------------------------------------------|
|------------------------------------------------------------------------|
|------------------------------------------------------------------------|

|-------15-14-12-10-10-12p10-------14-------12-------14-------12|
|-10-10----------------------10-10----10-10----10-10----10-10---|
|---------------------------------------------------------------|
|---------------------------------------------------------------|
|---------------------------------------------------------------|
|---------------------------------------------------------------|

|----------------------------|
|----------------------------|
|-7777-7777-88888888-10101010|
|-7777-7777-88888888-10101010|
|-5555-5555-66666666--8-8-8-8|
|----------------------------|

(0:13-0:35)No pierdo con saber...
|-------------------------------------------------------------------|
|-------------------------------------------------------------------|
|----------------------------------77777-99999----------------------|
|-5555555555-7777777777-9999999999-77777-99999-5555555555-7777777777|
|-5555555555-7777777777-9999999999-55555-77777-5555555555-7777777777|
|-3333333333-5555555555-7777777777-------------3333333333-5555555555|

|---------------------|
|---------------------|
|---------------------|
|-4444444444-5555-7777|
|-4444444444-5555-7777|
|-2222222222-3333-5555|

(0:36-0:47)Te encerrare en un cajón...
|----------|
|----------|
|-7--9-9-11|
|-7--9-9-11|
|-5--7-7--9|x8
|----------|

(0:48-1:10)No sabes lo que soy capaz...
|---------------------------------------------------------------------|
|---------------------------------------------------------------------|
|-7777777777-------------------------------------7777777777-----------|
|-7777777777-7777777777-9999999999-555555-777777-7777777777-7777777777|
|-5555555555-7777777777-9999999999-555555-777777-5555555555-7777777777|
|------------5555555555-7777777777-333333-555555------------5555555555|

|-------------------------|
|-------------------------|
|-------------------------|
|-4444444444-555555-777777|
|-4444444444-555555-777777|
|-2222222222-333333-555555|

(1:11-1:16)
|-------14-------12-------14-------12-------14----------------14-------12|
|-10-10----10-10----10-10----10-10----10-10----10-10-10-10-10----10-10---|
|------------------------------------------------------------------------|
|------------------------------------------------------------------------|
|------------------------------------------------------------------------|
|------------------------------------------------------------------------|

|-------15-14-12-10-10-12p10|
|-10-10---------------------|
|---------------------------|
|---------------------------|
|---------------------------|
|---------------------------|

(1:16-1:39)Vaya sorpresa me lleve...
|-------------------------------------------------------------------|
|-------------------------------------------------------------------|
|----------------------------------77777-99999----------------------|
|-5555555555-7777777777-9999999999-77777-99999-5555555555-7777777777|
|-5555555555-7777777777-9999999999-55555-77777-5555555555-7777777777|
|-3333333333-5555555555-7777777777-------------3333333333-5555555555|

|---------------------|
|---------------------|
|---------------------|
|-4444444444-5555-7777|
|-4444444444-5555-7777|
|-2222222222-3333-5555|

(1:40-1:51)Te encerrare en un cajón...
|----------|
|----------|
|-7--9-9-11|
|-7--9-9-11|
|-5--7-7--9|x8
|----------|

(1:51-2:13)No sabes lo que soy capaz... 
|---------------------------------------------------------------------|
|---------------------------------------------------------------------|
|-7777777777-------------------------------------7777777777-----------|
|-7777777777-7777777777-4444444444-555555-777777-7777777777-7777777777|
|-5555555555-7777777777-4444444444-555555-777777-5555555555-7777777777|
|------------5555555555-2222222222-333333-555555------------5555555555|

|-----------------------|
|-----------------------|
|-----------------------|
|999999999-555555-777777|
|999999999-555555-777777|
|777777777-333333-555555|

(2:14-2:20)
|---------------|
|---------------|
|-7~----------7~|
|-7~----------7~|
|-5~----------5~|
|---------------|

(2:20-2:39)No encuentro forma...     (2:40-2:43)  
|---------|                          |--------------------|
|---------|                          |--------------------|
|--------2|                          |--------------------|
|----2-4--|                          |--------------------|
|-22------|                          |-0-0-5-9-5-0-0-0-5-9|
|---------|x14                       |--------------------|

(2:43-2:54)El fin del mundo...
|--------------------------------------------------------------------|
|--------------------------------------------------------------------|
|--------------------------------------------------------------------|
|-9-9-9-9-9-999999-7-7-7-7-7-777777-5-5-5-5-5-555555-----------------|
|-9-9-9-9-9-999999-7-7-7-7-7-777777-5-5-5-5-5-555555--5-9-5-0-0-0-5-9|
|-7-7-7-7-7-777777-5-5-5-5-5-555555-3-3-3-3-3-333333-----------------|

(2:55-3:27)No sabes lo que soy capaz... 
|---------------------------------------------------------------------|
|---------------------------------------------------------------------|
|-7777777777-------------------------------------7777777777-----------|
|-7777777777-7777777777-9999999999-555555-777777-7777777777-7777777777|
|-5555555555-7777777777-9999999999-555555-777777-5555555555-7777777777|
|------------5555555555-7777777777-333333-555555------------5555555555|

|------------------------------------------------------|
|------------------------------------------------------|
|---------------------------------------------------7~~|
|-9999999999-555555-777777-9999999999-555555-777777-7~~|
|-9999999999-555555-777777-9999999999-555555-777777-5~~|
|-7777777777-333333-555555-7777777777-333333-555555----|

Добавлено: 23.03.2012
Другие материалы по этой песне:
  • Аккорды и текст

Страница создана 23.03.2012
http://primanota.ru/finde/mas-de-cien-palabras-para-ti-chords.htm
Привет, Гость.
Предлагаем пройти революционный курс по гитаре.
Подарок от PrimaNota.Ru, забирай!