PrimaNota.ru - самый крупный в мире бесплатный архив песенных текстов, аккордов, табулатур и нот


Finde - Dont Give Up - таба, видео

Регистрация Запомнить меня
Войти через:  Facebook Google Twitter Vk Yandex Mail.ru

Finde - Dont Give Up - таба, видео

Печатать
Просмотров: 171
KE ONDA MORROS
AKI TRAYENDOLES
ESTA ROLA
KE AL PARECER
NADIE LA HA SACADO
TAN FACIL KE ESTA
SOLO ME DABA HUEVA
ESCRIBIRLA
PERO YA ESTA

ESTA AL 100%, PERO LOS RITMOS
NO LOS PUSE COMO VAN

Pre-Intro: (chequen el ritmo en la rola
y de cómo se tocan las notas muertas)

Guitarra 2:
E|---------------------------------------|
B|---------------------------------------|
G|----7---------7---------5---------7----|
D|----5---------7---------5---------7----|
A|----7---------5---------3---------5----|
E|---------------------------------------|

Intro: (Aquí la guitarra 2 toca el último acorde
diferente de cada compás y en el tercero toca la
primer parte pero el último acorde lo deja sonar,
al igual que la guitarra 1, solo deja sonar la nota 10)

Guitrarra 1: Primera, segunda parte

E|---10-10-10-7-7-7---------|     E|--10~---------|
B|------------------8-8-----|     B|--------------|
G|------------------------------------------------|
D|------------------------------------------------|
A|------------------------------------------------|
E|------------------------------------------------| x 10


Guitarra 2: Primer compás
E|--------------------------|
B|--------------------------|
G|---5-----7-----9----------|
D|---5-----7-----9----------|
A|---3-----5-----7----------|
E|--------------------------|

Guitarra 2: Segundo compás
E|--------------------------|
B|--------------------------|
G|---5-----7-----7----------|
D|---5-----7-----5----------|
A|---3-----5-----7----------|
E|--------------------------|


Guitarra3: Tercer compás
E|--------------------------|
B|--------------------------|
G|---5-----7-----9~---------|
D|---5-----7-----9~---------|
A|---3-----5-----7~---------|
E|--------------------------|

Verso: Donde empieza la letra

Guitarra 1: Arpegio
E|----2-----------2-------------2-----------2-------------|
B|------3-----3-----3-----3-------3-----3------3-----3----|
G|----------0-----------0----2--------0------------0------|
D|--2-----2-----2-----2-------------0-----0------0--------|
A|--------------------------------------------------------|
E|--------------------------------------------------------|X4


Letra con el arpegio

I can see in your eyes
you will surrender,
What kind of fade without me?

Something shattered down your heart,
What kind of feelings
survive without lies?


Donde empieza “Be stronger, come running again like you did before….”
La guitarra 2 hace esto, la guitarra 1 continúa con el arpegio
E|--------------------------|
B|--------------------------|
G|----7~----7~-7~----33333--|
D|----5~----5~-5~----33333--|
A|----7~----7~-7~----55555--|
E|--------------------------| x 2

Y en: “just like in your fairytales”

   E|-------------------------------|
   B|-------------------------------|
   G|---5----5---5---------5--5--5--|
   D|---5----5---5---------5--5--5--|
   A|---3----3---3---------7--7--7--|
   E|-------------------------------|

Coro: (Se toca lo del intro)
And I know we can't go on together for ever,
but I can stand to say I miss you, I miss you,
and I know we can't go back to the day you let go,
so now look at me I've got no choice but to say
I miss you, I miss you,
I'm trying to turn the silence into whispers

Verso: You feel like going nowhere, you're hiding in a word box

Guitarra 2:

E|-----------------------------|
B|-----------------------------|
G|-----------------------------|
D|-----------------------------|
A|----5/7/5----------9--7------|
E|-----------------------------|

Guitarra 1:
E|----2-----------2-------------2-----------2-------------|
B|------3-----3-----3-----3-------3-----3------3-----3----|
G|----------0-----------0----2--------0------------0------|
D|--2-----2-----2-----2-------------0-----0------0--------|
A|--------------------------------------------------------|
E|--------------------------------------------------------|


Be stronger....
E|--------------------------|
B|--------------------------|
G|----7~----7~-7~----33333--|
D|----5~----5~-5~----33333--|
A|----7~----7~-7~----55555--|
E|--------------------------| x 2

“just like in your fairytales”

E|-------------------------------|
B|-------------------------------|
G|---5----5---5---------5--5--5--|
D|---5----5---5---------5--5--5--|
A|---3----3---3---------7--7--7--|
E|-------------------------------|

Coro: (Se toca lo del intro)


NOTA: AQUI LAS GUITARRAS EN VEZ DE TERMINAR CON EL ACORDE
Y LA NOTA COMO EN EL INTRO, LO HACEN CORRIDO


SOLO:
Guitarra 1:
E|-------------------------------------------|
B|--10-x-10-x-10-x-10-x-10-x-10-x-10-x-10-x--|
G|-------------------------------------------|
D|-------------------------------------------|
A|-------------------------------------------|
E|-------------------------------------------|

E|-------------------------------|
B|-------------------------------|
G|---12------11--------12-11-----|
D|-----12-12----12-12--------12--|
A|-------------------------------|
E|-------------------------------|
Guitarra 2:
E|----------------x-x-------------------|
B|----------------x-x-------------------|
G|----7-7-7-7-7---x-x---7-7-7-7-7-------|
D|----5-5-5-5-5---x-x---7-7-7-7-7-------|
A|----7-7-7-7-7---x-x---5-5-5-5-5-------|
E|----------------x-x-------------------|  X4


Guitarra 1:
E|---------------       E|-------------|
B|--------12-----       B|-------------|
G|--12/14--------       G|--12x--------|
D|-------------------------------------|
A|-------------------------------------|
E|-------------------------------------| x7
Guitarra 2:
E|----------------------------|
B|----------------------------|
G|----------------------------|
D|----7-7-7-7-7-7-7-7-7-7-7---|
A|----7-7-7-7-7-7-7-7-7-7-7---|
E|----5-5-5-5-5-5-5-5-5-5-5---|

BREAK:  “When it's over and we'll notice what is for?”
(ustedes midanle el tiempo porke me da weva ponerlo como es)
Guitarra 1:
E|---------------------------------------------------------|
B|---------------------------------------------------------|
G|--11-12--12--12--12--11-11-12--12--12--12--12--12--12----|
D|--x--x---x---x---x---x--x--x---x---x---x---x---x---x-----|
A|--9--10--10--10--10--9--9--10--10--10--10--10--10--9-----|
E|---------------------------------------------------------|

Guitarra 2:
E|---------------------------------|
B|---------------------------------|
G|--7-7-7-7---5-5-5-5---7-7-7-7----|
D|--5-5-5-5---4-4-4-4---7-7-7-7----|
A|--7-7-7-7---2-2-2-2---5-5-5-5----|
E|---------------------------------|

NOTA: MIDANLE LOS TIEMPOS A CADA GUITARRA EH CABRONES


Coro: Otra vez el intro, pero al final en “I miss you,
i miss you..” después de eso, las guitarras tokan el final

Final: Ambas guitarras

E|------x-x-----------x-x-----------------------------|
B|------x-x-----------x-x-----------------------------|
G|-5-5--x-x--7-7-7-7--x-x--7-7-7-7-7-7-7-7-7-7/9------|
D|-5-5--x-x--5-5-5-5--x-x--7-7-7-7-7-7-7-7-7-7/9------|
A|-3-3--x-x--7-7-7-7--x-x--5-5-5-5-5-5-5-5-5-5/7------|
E|------x-x-----------x-x-----------------------------| x4

Guitarra 1:
E|--------------------------|
B|--------------------------|
G|---(5)--------------------|  Armónico natural
D|--------------------------|  (si pueden metanle arreglos)
A|--------------------------|
E|--------------------------|

Guitarra 2:
E|---------------------------|
B|---------------------------|
G|----7~---------------------|
D|----5~---------------------|
A|----7~---------------------|
E|---------------------------|

COMO LES DIJE
NO SEAN PENDEJOS
Y FIJENSE EN LOS RITMOS
DE LA CANCION
PORKE NO LA PUSE AKI
EXACTAMENTE COMO VA
PERO DE KE ESTA AL 100%
ESTA AL 100%
DUDAS A MI MAIL

GALI TE AMO,
ERES LO MAS HERMOSO EN MI VIDA
POR TI SAKE ESTA ROLA
TE AMO

GRUPO ENACRI
TE INVITA A PARTICIPAR
EN SUS ENCUENTROS CON CRISTO
CAMBIARAN TU VIDA DE PLANO
Y SI YA ERES MIEMBRO
NO DEJES DE ASISTIR A LAS JUNTAS
Добавлено: 25.02.2012
Другие материалы по этой песне:
  • Аккорды и текст

Страница создана 25.02.2012
http://primanota.ru/finde/dont-give-up-chords.htm
Привет, Гость.
Предлагаем пройти революционный курс по гитаре.
Подарок от PrimaNota.Ru, забирай!