PrimaNota.ru - самый крупный в мире бесплатный архив песенных текстов, аккордов, табулатур и нот


Finch - Insomniatic Meat - текст песни, таба, видео

Регистрация Запомнить меня
Войти через:  Facebook Google Twitter Vk Yandex Mail.ru

Finch - Insomniatic Meat - текст песни, таба, видео

Печатать
Просмотров: 119
Уроки эстрадного вокала в Санкт-Петербурге
-------------------------------------------------------------------------------
			     FINCH 
				"Insomniatic Meat"
					Say Hello to Sunshine	
-------------------------------------------------------------------------------
This is track 1 on SHTS, one of my favourite songs too.
This song is easy to play, enjoy :)


Tabbed by: Shaunedy
Email: shadow-dirapon@hotmail.co.uk

Tuning: Drop Db. To get to this, go half a step down from standard and a further
step down on the lowest string.

eb|---------------------------------------------------------------------------| 
Bb|---------------------------------------------------------------------------| 
Gb|-12-11-9-8----------12-11-9-16-15------------------------------------------| 
Db|-12-11-9-8-77777777-12-11-9-16-15------------------------------------------| 
Ab|-10-9--7-6-77777777-10-9--7-14-13------------------------------------------|
Db|-----------77777777--------------------------------------------------------|
Play the chord
per amount in
the brackets.
Repeat as necessary.

   (8)(4)(4)(8)(8)    (8)(4)(4)(8)(1)

eb|-----------------------|---------------------------------------------------| 
Bb|-----------------------|---------------------------------------------------| 
Gb|------------------9999-|-121212-111111-------------------------------------| 
Db|-9999-77-10101010-9999-|-121212-111111-2-----------------------------------| 
Ab|-9999-77-10101010-7777-|-101010-9-9-9--2-----------------------------------| 
Db|-9999-77-10101010------|---------------2-----------------------------------|
Play first bit times..
whatever. :P The 2-2-2
power chord is played
ALOT, until and after
the next part.


eb|-----------------|---------------------------------------------------------| 
Bb|-----------------|---------------------------------------------------------| 
Gb|-----------------|-12-11-14-12-11-9-8--------------------------------------|
Db|-5--4--7--9--7---|-12-11-14-12-11-9-8--------------------------------------|
Ab|--7--7--7--7--9--|-10-9--12-10-9--7-6--------------------------------------|
Db|---0--0--0--0--0-|---------------------------------------------------------|
Play the chords on the
second bit as required.

CHORUS

eb|---------------------------------------------------------------------------| play twice :)
Bb|---------------------------------------------------------------------------|
Gb|---------------------------------------------------------------------------|
Db|-77777777-22222222-555555555-44444444--------------------------------------|
Ab|-77777777-22222222-555555555-44444444--------------------------------------|
Db|-77777777-22222222-555555555-44444444--------------------------------------|

POST-CHORUS

There's just some sort of decaying effect after the chorus. The first part
is played at times, and to end the second verse, play those chords.

eb|-----------------|---------------------------------------------------------| 
Bb|-----------------|---------------------------------------------------------|
Gb|-----------------|-12-11-14-12-11-9-8--------------------------------------|
Db|-5--4--7--9--7---|-12-11-14-12-11-9-8--------------------------------------|
Ab|--7--7--7--7--9--|-10-9--12-10-9--7-6--------------------------------------|
Db|---0--0--0--0--0-|---------------------------------------------------------|
Play the chords ONCE

CHORUS

eb|---------------------------------------------------------------------------| 
Bb|---------------------------------------------------------------------------|
Gb|---------------------------------------------------------------------------|
Db|-77777777-22222222-555555555-44444444--------------------------------------|
Ab|-77777777-22222222-555555555-44444444--------------------------------------|
Db|-77777777-22222222-555555555-44444444--------------------------------------|

Oooh I love this bit. When he starts singing "this is the worst thing that you
have ever done," play this as needed:

eb|---------------------------------------------------------------------------| 
Bb|---------------------------------------------------------------------------|
Gb|---------------------------------------------------------------------------|
Db|-22222222-77777777-222222222-77777777--------------------------------------|
Ab|-22222222-77777777-222222222-77777777--------------------------------------|
Db|-22222222-77777777-222222222-77777777--------------------------------------|

OUTRO

Play this as the song ends.

Ab|-2222-00-3333-7777---------------------------------------------------------|

times whatever. That's how I play it, may be wrong somewhere, but I dunno. Please
give feedback and rate honestly! It's one of my first tabs.

Lyrics:

Oh my god.
I think I'm blind
I've found one color won't suffice
You promised,
Sleep tonight

Call it a whisper that comes from
The distance
To protect all your children
One more, one more, one more minute
To fight off the bad guy...

Now go to sleep
Nightmares make these scars
A stomach's bloody hole
Sinking quicksand eyes
Makes for heavy sight

It's painless to float above the earth
Like this

Tie me to a chair, subconsciously
Surrendering
Now that I'm awake
It's hard for me to make believe

Blood between the sheets,
Insomniac meat oh - I can't shut my eyes
Void of nightmares, leading upstairs
Do I follow? - I can't shut my eyes

Tie me to a chair, subconsciously
Surrendering
Now that I'm awake
It's hard for me to make believe

This is the worst thing that you have ever done
This is the worst thing that you have ever done
This is the worst thing that you have ever done
This is the worst thing that you have ever done
This is the worst thing that you have ever done
This is the worst thing that you have ever done
This is the worst thing that you have ever done
This is the worst thing that you have ever done


| /  slide up
| \  slide down
| h  hammer-on
| p  pull-off
| ~  vibrato
| +  harmonic
| x  Mute note
===============================================================================
Добавлено: 04.12.2013
Вам также может быть интересно:
Другие материалы по этой песне:
  • Аккорды и текст

Страница создана 17.09.2013
http://primanota.ru/finch/insomniatic-meat-chords.htm
Привет, Гость.
Предлагаем пройти революционный курс по гитаре.
Подарок от PrimaNota.Ru, забирай!