PrimaNota.ru - самый крупный в мире бесплатный архив песенных текстов, аккордов, табулатур и нот


Finch - Ink - текст песни, таба, бас-таба, видео

Регистрация Запомнить меня
Войти через:  Facebook Google Twitter Vk Yandex Mail.ru

Finch - Ink - текст песни, таба, бас-таба, видео

Печатать
Просмотров: 116
------------------------------------------------------------------------	
		Ink
		  by Finch	
		     from Say Hello to Sunshine
------------------------------------------------------------------------
Tabbed by Brian Rozboril
email=ieatlotsapaste@aol.com
Tuning: (low to high) Db Ab Db Gb Bb eb 

Intro                         *
eb|-------------------------------------------------------------| 
Bb|-------------------------------------------------------------| Repeat this 
Gb|----7-----4-----7-----4--4-----7-----4----7-----4--4-4-4-----| four times.
Db|-/5---5------/5---5------5--/5---5-----/5---5------5-5-5-----| 
Ab|-------------------------3-------------------------3-3-3-----| 
Db|--------5-----------5--------------5----------5--------------| 

Verses
eb|---------------------------------------------------------------------------|
Bb|---------------------------------------------------------------------------|
Gb|-10-10-10-10-10-10-10-10-10-10-10-10-10-10\-9-9-9-9-9-9-9-9-9-9-9-9-9-9----| 	
Db|-(x--x--x--x--x--x--x--x--x--x--x--x--x--x--x-x-x-x-x-x-x-x-x-x-x-x-x-x)---| 
Ab|-(8--8--8--8--8--8--8--8--8--8--8--8--8--8\-7-7-7-7-7-7-7-7-7-7-7-7-7-7)---| 
Db|---------------------------------------------------------------------------| 

eb|----------------------------------------------------------------| 
Bb|----------------------------------------------------------------|  Play this twice 
Gb|-2-2-2-2-2-2-2-2-2-2-2-2-2-2-2\-7-7-7-7-7-7-7-7-7-7-7-7-7-(/19)-|  per verse.  Play  
Db|(x-x-x-x-x-x-x-x-x-x-x-x-x-x-x--x-x-x-x-x-x-x-x-x-x-x-x-x----x)-|  the notes in () 	
Ab|(0-0-0-0-0-0-0-0-0-0-0-0-0-0-0\-5-5-5-5-5-5-5-5-5-5-5-5-5---17)-|  the second time
Db|----------------------------------------------------------------|  only.

Chorus
eb|--------------------------------------------------------|
Bb|--------------------------------------------------------|
Gb|----------------------4---------------------------------| 	
Db|-3-3-0-0-0--3-3-0-0-0-5--3-3-0-0-0--3-3-0-0-0-5-5-5-----| 
Ab|-5-5-0-0-0--5-5-0-0-0-2--5-5-0-0-0--5-5-0-0-0-7-7-7-----| 
Db|-3-3-0-0-0--3-3-0-0-0-2--3-3-0-0-0--3-3-0-0-0-5-5-5-----| 

eb|-------------------------------------------------------------------|(That is just
Bb|-------------------------------------------------------------------| the tenth fret 
Gb|-------------------------------------------------------------------| on the Db,	
Db|1010101010101010101010101010101010101010101010101010101010101010---| it kinda got
Ab|-8-8-8-8-8-8-8-8-8-8-8-8-8-8-8-8-8-8-8-8-8-8-8-8-7-7-7-7-7-7-7-7---| mushed.)
Db|-8-8-8-8-8-8-8-8-8-8-8-8-8-8-8-8-8-8-8-8-8-8-8-8-7-7-7-7-7-7-7-7---| 

eb|-----------------------------------------------------|
Bb|-----------------------------------------------------|
Gb|----------------------4-4----------------------------| 	
Db|-3-3-0-0-0--3-3-0-0-0-5-5--3-3-0-0-0--3-3-0-0-0-5-5--| 
Ab|-5-5-0-0-0--5-5-0-0-0-2-2--5-5-0-0-0--5-5-0-0-0-7-7--| 
Db|-3-3-0-0-0--3-3-0-0-0-2-2--3-3-0-0-0--3-3-0-0-0-5-5--| 

eb|-----------------------------------------------------|
Bb|-----------------------------------------------------|
Gb|----------------------4-4----------------------------| 	
Db|-3-3-0-0-0--3-3-0-0-0-5-5--3-3-0-0-0--3-3-0-0-0-5-5--| 
Ab|-5-5-0-0-0--5-5-0-0-0-2-2--5-5-0-0-0--5-5-0-0-0-7-7--| 
Db|-3-3-0-0-0--3-3-0-0-0-2-2--3-3-0-0-0--3-3-0-0-0-5-5--| 

Before the second verse kicks in, they play the intro part again, the only 
difference is that they play that B chord three times the first and third time  
and only once the second and fourth time.  Start where I put an * over. After 
that, play the verse and the chorus again the same way.

Bridge
eb|--------8-----------8------| Listen to song for timing.
Bb|----6-----6-----6-----6----| This gets played a bunch
Gb|--7---7-------7---7--------| of times.	
Db|---------------------------| 
Ab|---------------------------| 
Db|---------------------------| 

	Change to this part when they sing "Ink spills on paper..."
eb|--------8----------8--------8--|
Bb|----6-----6----6-----6----6----|Again, listen to the song
Gb|--7---7------7---7------7------|for the timing of everything.	
Db|-------------------------------| 
Ab|-------------------------------| 
Db|-------------------------------| 

After that, the chorus gets played again, only start in the second line 
of it (the mushed line).  Play from that mark twice. The second time you play
the chorus, there is a second guitar playing octaves over the first guitar's part.
These are those octaves:

eb|----------------------------|
Bb|--15----17------------------|These get played a bunch of times each over the 
Gb|---x-----x----14----15---14-|chorus.
Db|--12----14-----x-----x----x-| 
Ab|--------------12----13---12-| 
Db|----------------------------|

After that, the two guitars play this 'till the end.
Guitar One
eb|-------8----|
Bb|---6-----6--|
Gb|-7---7------| 	
Db|------------| 
Ab|------------| 
Db|------------| 

Guitar Two
eb|-----------------------------------| Play this until the end.
Bb|-----------------------------------|
Gb|-----------------------------------| 	
Db|-0--0-0--0--0-0--3--3-3--8--8-8----| 
Ab|-0--0-0--0--0-0--3--3-3--8--8-8----| 
Db|-0--0-0--0--0-0--3--3-3--8--8-8----| 
 
That's it.  I hope it all made sense.  Email me if you have questions or anything.
The most important thing is to really listen to the song and get timing and stuff
down.  Besides that, have fun.

| /  slide up
| \  slide down
| h  hammer-on
| p  pull-off
| ~  vibrato
| +  harmonic
| x  Mute note
|...(pm) Palm Mute
===============================================================================
Добавлено: 09.08.2013
Другие материалы по этой песне:
  • Аккорды и текст

Страница создана 01.06.2012
http://primanota.ru/finch/ink-chords.htm
Привет, Гость.
Предлагаем пройти революционный курс по гитаре.
Подарок от PrimaNota.Ru, забирай!