PrimaNota.ru - самый крупный в мире бесплатный архив песенных текстов, аккордов, табулатур и нот


Finch - Gak 2 - таба, видео

Регистрация Запомнить меня
Войти через:  Facebook Google Twitter Vk Yandex Mail.ru

Finch - Gak 2 - таба, видео

Печатать
Просмотров: 151
-------------------------------------------------------------------------------
			     GAK 2
				by Finch
					"Say Hello to Sunshine"
					(UK Release)
-------------------------------------------------------------------------------
Tabbed by: Shaunedy (windehr0x@googlemail.com / shadow-dirapon@hotmail.co.uk)
Tuning: Standard flat tuning (eb Bb Gb Db Ab Eb high to low)

Another brilliant song by Finch, as with the rest of SHTS's songs :P
I haven't seen any tabs for this, so I figured I'd have a go. Sounds okay to
me, please give feedback/rate :)

INTRO

eb|-----7------7-----7-6b(7)-6b(7)-----7-6b(7)-6b(7)-------------------------| Play as needed
Bb|--8-8--8-8-8---8-8---------------8-8--------------------------------------|
Gb|-9-9--9-9-9---8-8---------------8-8---------------------------------------|
Db|--------------------------------------------------------------------------|
Ab|--------------------------------------------------------------------------|
Eb|--------------------------------------------------------------------------|

eb|--------------------------------------------------------------------------|
Bb|--------------------------------------------------------------------------|
Gb|-------------------99-77-444444-22-55-33---------------99-77-44-22-55-33--|
Db|-2-2-0h1-1h2-2h3p0-99-77-444444-22-55-33-0h1-1h2-2h3p0-99-77-44-22-55-33--|
Ab|-2-2---------------77-55-222222-00-33-11---------------77-55-22-00-33-11--|
Eb|-0-0----------------------------------------------------------------------|

^^ This bit drags on and is really fast, but that pattern goes on, so just
play that and you'll pick up what to play straight away. Anyway.

Play the intro again, then this.

PRE-CHORUS

eb|---------------|
Bb|---------------|
Gb|---------------|
Db|-22222-5-5-55--|
Ab|-22222-5-5-55--|
Eb|-00000-3-3-33--|

CHORUS

eb|--------------------------------------------------------------------------|
Bb|--------------------------------------------------------------------------|
Gb|-----------444444-9999----------------------------------------------------|
Db|-222-55-77-444444-9999----------------------------------------------------|
Ab|-222-55-77-222222-7777----------------------------------------------------|
Eb|-000-33-55----------------------------------------------------------------|

Times whatever.

The rest of the song is just mayhem... the song was unfinished by the band too :P

- Shaunedy


| /  slide up
| \  slide down
| h  hammer-on
| p  pull-off
| ~  vibrato
| +  harmonic
| x  Mute note
| b  Bend note
===============================================================================
Добавлено: 13.09.2013
Другие материалы по этой песне:
  • Аккорды и текст

Страница создана 13.09.2013
http://primanota.ru/finch/gak-2-chords.htm
Привет, Гость.
Предлагаем пройти революционный курс по гитаре.
Подарок от PrimaNota.Ru, забирай!