PrimaNota.ru - самый крупный в мире бесплатный архив песенных текстов, аккордов, табулатур и нот


Finch - Brother Bleed Brother - текст песни, таба, видео

Регистрация Запомнить меня
Войти через:  Facebook Google Twitter Vk Yandex Mail.ru

Finch - Brother Bleed Brother - текст песни, таба, видео

Печатать
Просмотров: 92
Song: Brother Bleed Brother (LEAD guitar only)
Band: Finch
Album: Say Hello to Sunshine

This is my first tab, so appologize if there are mistakes
The tab is much of a use-your-sense-of-guitarist tab
so use it to understand.

The rythm part I guess you can figure it out yourself.
It's not that hard.

Tabbed by: Pai
MSN = paichaz@linkinpark.com

Legends
~ = let ring (or sometimes just keep struming)
* = harmonic
. = palm mute
/ = slide up
^ = bend up



Intro (~ = keep strumming)
Eb|-------------------------------------|
Bb|-5-5-5-5-5-5-5-5-5^-5^-5^-5^-5^-5^---|
Gb|-8-8-8-8-8-8-8-8-8^-8^-8^-8^-8^-8^---|
Db|-------------------------------------|
Ab|-------------------------------------|
Db|-------------------------------------|

(~ = keep strumming)
Eb|---------------------------------------------------------------------------|
Bb|--------------------------------------------------------------5^~~~~~~~~~~~|
Gb|-9-9-9-9-9-9--9--9--9--9--9--9--10-10-10-10-10-9-9-9-7-7-7----8^~~~~~~~~~~~|
Db|-x-x-x-x-x-x-10-10-10-10-10-10---x--x--x--x--x-x-x-x-x-x-x-----------------|
Ab|-7-7-7-7-7-7--7--7--7--7--7--7---8--8--8--8--8-7-7-7-5-5-5-----------------|
Db|---------------------------------------------------------------------------|




[Verse 1] x 2   hate sin not the sinner
Eb|-------------------------------------------------------------------|
Bb|-----------------------------------------------------4-4-4-4-4-4-4-|
Gb|-10-10-10-10-10-10-10-10-10-10-9-9-9-9-9-9-9-9-9-9-9-5-5-5-5-4-4-4-|x2
Db|-------------------------------------------------------------------|
Ab|-------------------------------------------------------------------|
Db|-------------------------------------------------------------------|
PM  ....................................................

brother bleed brother...
Eb|-12--12--12--12--11--11~~------12--12--12--12--11~~-|
Bb|-10--10--10--10--10--10~~------10--10--10--10--10~~-|
Gb|-9---9---9---9-----------------9---9---9---9--------|
Db|-10--10--10--10----------------10--10--10--10-------|
Ab|----------------------------------------------------|
Db|----------------------------------------------------|

with your desire.   [0:38]
Eb|--------------|  Eb|-----------------------------------------------|
Bb|-5-5-5-5-5-5--|  Bb|-----------------------------------------------|
Gb|-5-5-5-5-4-4--|  Gb|---2--2--2--2--2--2-----2---2--2--2--2--2------|
Db|--------------|  Db|-----------------------------------------------|
Ab|--------------|  Ab|-----------------------------------------------|
Db|--------------|  Db|-3--3--3--3--0-----0--0--0---3--3--3--3--0-----|




[Chorus 1] x 3    I'll hold my breath, until the end...
Eb|-----------------------------------------------------------------------------|
Bb|--10-10-10-10-12-12-12-12-13-13-13-13-13-13-13-13-13-13-13-13--8-8-8-10-10-10|
Gb|---x--x--x--x--x--x--x--x--x--x--x--x--x--x--x--x--x--x--x--x--x-x-x--x--x--x|x3
Db|---7--7--7--7--9--9--9--9-10-10-10-10-10-10-10-10-10-10-10-10--5-5-5--7--7--7|
Ab|-----------------------------------------------------------------------------|
Db|-----------------------------------------------------------------------------|

i'll hold my breathhh!!  (~ = keep strumming)
Eb|-------------------------------------------------------------------------------------------|
Bb|-10-10-10-10-12-12-12-12-13-13-13-13-13-13-13-13-13-13-13-13---5^-5^-5^-5^-5^-5^~~~~~~~~~~-|
Gb|--x--x--x--x--x--x--x--x--x--x--x--x--x--x--x--x--x--x--x--x---8^-8^-8^-8^-8^-8^~~~~~~~~~~-|
Db|--7--7--7--7--9--9--9--9-10-10-10-10-10-10-10-10-10-10-10-10-------------------------------|
Ab|-------------------------------------------------------------------------------------------|
Db|-------------------------------------------------------------------------------------------|

[1:14] ^    ^    ^    ^    ^ (bend up as much as you can)
Eb|-----------------------------------------------------------|
Bb|---6^---6^---6^---6^---6^----5-5-5-5-5-5-5^-5^-5^-5^-5^-5^-|
Gb|---9^---9^---9^---8^---9^----8-8-8-8-8-8-8^-8^-8^-8^-8^-8^-|
Db|-----------------------------------------------------------|
Ab|-----------------------------------------------------------|
Db|-----------------------------------------------------------|




[Verse 2]    miles of conviction to carry the....
Eb|----------------------------------------------------------------|
Bb|-----13------13------13------13------12------12------12------12-|
Gb|-14------14------14------14------14------14------14------14-----|
Db|----------------------------------------------------------------|
Ab|----------------------------------------------------------------|
Db|----------------------------------------------------------------|

weight of all your own mistakes
Eb|----------------------------------------------------------------|
Bb|-----13------13------13------13------12------12--12^------------|
Gb|-14------14------14-----14-------14------14------14^------------|
Db|----------------------------------------------------------------|
Ab|----------------------------------------------------------------|
Db|----------------------------------------------------------------|

open your eyes, in the end everything
Eb|--12-12-12-12-12-12-12-12-12-12-11-11-11-11-11-11-11-11-11-11-11-11-|
Bb|---x--x--x--x--x--x--x--x--x--x--x--x--x--x--x--x--x--x--x--x--x--x-|
Gb|---9--9--9--9--9--9--9--9--9--9--8--8--8--8--8--8--8--8--8--8--8--8-|
Db|--------------------------------------------------------------------|
Ab|--------------------------------------------------------------------|
Db|--------------------------------------------------------------------|

everything dies...                                                         *harmonic  
Eb|-12-12-12-12-12-12-12-12-12-12-11-11-11-11-11-11-11-11-11-11-11-11-11--0*---------|
Bb|--x--x--x--x--x--x--x--x--x--x--x--x--x--x--x--x--x--x--x--x--x--x--x--0*---------|
Gb|--9--9--9--9--9--9--9--9--9--9--8--8--8--8--8--8--8--8--8--8--8--8--8--0*---------|
Db|----------------------------------------------------------------------------------|
Ab|----------------------------------------------------------------------------------|
Db|----------------------------------------------------------------------------------|




[Chorus 2]     and i die...                                  *harmonic
Eb|---------------------------------------------------------5*--------|
Bb|----5--5--5--5---5-5-----5--5---5--5--5--5---5-5---------5*--------|
Gb|---------------------------------------------------------5*--------|
Db|--3--3--3--3---0-----0-0--0---3--3--3--3---0-----000-0-0-----------|
Ab|--3--3--3--3---0-----0-0--0---3--3--3--3---0-----000-0-0-----------|
Db|--3--3--3--3---0-----0-0--0---3--3--3--3---0-----000-0-0-----------|
                                                     . .
and i die, for you and i die~
Eb|---------------------------------------------------|
Bb|----5--5--5--5---5-5-----5--5---5--5--5--5---------|
Gb|---------------------------------------------------|
Db|--3--3--3--3---0-----0-0--0---3--3--3--3---0~~~~~~~|
Ab|--3--3--3--3---0-----0-0--0---3--3--3--3---0~~~~~~~|
Db|--3--3--3--3---0-----0-0--0---3--3--3--3---0~~~~~~~|

[2:03]
Eb|-----------------7-5----------------------------7-5-----5-----5---------7-5------|
Bb|-----6-----7---------6--6-----------6-----7---------6-----6-----6-----------6----|
Gb|-5-7---5-7---5-7-------7--6-6---5-7---5-7---5-7-------7-----7-----7-5-7-------7v-|
Db|---------------------------------------------------------------------------------|
Ab|---------------------------------------------------------------------------------|
Db|---------------------------------------------------------------------------------|




[Pre-Break Down] x2  Sifting seasons through the sand.....
Eb|--------------------------------------|
Bb|----6-----6------5-----5~5-----10-10--|
Gb|----5-----5------5-----5~5------8--8--|
Db|-0-----0-----0~-0---0~-3~3~-0~~-7--7--|
Ab|-0-----0-----0~-0---0~-3~3~-0~~-------|
Db|-0-----0-----0~-0---0~-3~3~-0~~-------|

Spitting treason in your hand
Eb|---------------------------------------|
Bb|----6-----6------5----5~5--------------|
Gb|----5-----5------5----5~5-----7-----4--|x2
Db|-0-----0-----0~~0---0~3~3-------5-0----|
Ab|-0-----0-----0~~0---0~3~3--/5----------|
Db|-0-----0-----0~~0---0~3~3--------------|

[Break Down] x2 (~ = keep strumming, fast)
Eb|-------------------|-----------------|
Bb|--9~~~~~~~~~~~~~~~-|-8~~~~~~~~~~~~~~~|
Gb|--10~~~~~~~~~~~~~~-|-9-~~~~~~~~~~~~~~|
Db|-------------------|-----------------|
Ab|-------------------|-----------------|
Db|-------------------|-----------------|

(both lead and rythm)
Eb|----------|-------|---------------|-------|
Bb|----------|-------|---------------|-------|
Gb|----------|-------|---------------|-------|
Db|--0-0-0-0-|-0-0-0-|-00-00-0-0-0-0-|-0-0-0-|
Ab|--0-0-0-0-|-0-0-0-|-00-00-0-0-0-0-|-0-0-0-|
Db|--0-0-0-0-|-0-0-0-|-00-00-0-0-0-0-|-0-0-0-|




[Chorus 1] x4      I'll hold my breath, until the end......
Eb|-----------------------------------------------------------------------------|
Bb|--10-10-10-10-12-12-12-12-13-13-13-13-13-13-13-13-13-13-13-13--8-8-8-10-10-10|
Gb|---x--x--x--x--x--x--x--x--x--x--x--x--x--x--x--x--x--x--x--x--x-x-x--x--x--x|x4
Db|---7--7--7--7--9--9--9--9-10-10-10-10-10-10-10-10-10-10-10-10--5-5-5--7--7--7|
Ab|-----------------------------------------------------------------------------|
Db|-----------------------------------------------------------------------------|

[Ending]       I'll hold my breath, I'll hold my breath
Eb|---------------------------------------------------------------------|
Bb|-10-10-10-10-8-8-8-8-11-11-11-11-18-18-18-18-17-17-17-17-17-17-17-17-|
Gb|--x--x--x--x-x-x-x-x--x--x--x--x--x--x--x--x--x--x--x--x--x--x--x--x-| x 4
Db|--7--7--7--7-5-5-5-5--9--9--9--9-15-15-15-15-14-14-14-14-14-14-14-14-|
Ab|---------------------------------------------------------------------|
Db|---------------------------------------------------------------------|
Добавлено: 07.08.2013
Другие материалы по этой песне:
  • Аккорды и текст

Страница создана 29.07.2012
http://primanota.ru/finch/brother-bleed-brother-chords.htm
Привет, Гость.
Предлагаем пройти революционный курс по гитаре.
Подарок от PrimaNota.Ru, забирай!