PrimaNota.ru - самый крупный в мире бесплатный архив песенных текстов, аккордов, табулатур и нот


Finch - A Piece Of Mind - текст песни, таба, видео

Регистрация Запомнить меня
Войти через:  Facebook Google Twitter Vk Yandex Mail.ru

Finch - A Piece Of Mind - текст песни, таба, видео

Печатать
Просмотров: 121
------------------------------------------------------------------------	
		A Piece of Mind
		    by Finch	
		      from Say Hello to Sunshine
------------------------------------------------------------------------
Tabbed by Brian Rozboril
email=ieatlotsapaste@aol.com
Tuning: (low to high) Db Ab Db Gb Bb eb 

Intro: Guitar One
eb|-----------------------------------------------------|  
Bb|-----------------------------------------------------|  
Gb|------------------------9-9-9-9-9-9-9-6-6-6-6-6-6----|   
Db|-2-4-4-4-4-2-xxxxxxxxxx-7-7-7-7-7-7-7-4-4-4-4-4-4----| 
Ab|-2-4-4-4-4-2-xxxxxxxxxx-5-5-5-5-5-5-5-2-2-2-2-2-2----| 
Db|-2-4-4-4-4-2-xxxxxxxxxx------------------------------| 

eb|-----------------------------------------------------|  Guitar one plays this
Bb|-----------------------------------------------------|  two times.  
Gb|------------------------6-6-6-6-6-6-6-6-6-6-6-6-6----|   
Db|-2-4-4-4-4-2-xxxxxxxxxx-7-7-7-7-7-7-7-4-4-4-4-4-4----| 
Ab|-2-4-4-4-4-2-xxxxxxxxxx-5-5-5-5-5-5-5-2-2-2-2-2-2----| 
Db|-2-4-4-4-4-2-xxxxxxxxxx------------------------------| 

	 Guitar Two
eb|-----------------------------------------------------|
Bb|-4h7-7-7-7-7-4----------10101010101010-7-7-7-7-7-7---|
Gb|-3---3-3-3-3-3-----------7-7-7-7-7-7-7-4-4-4-4-4-4---| 	
Db|---------------xxxxxxxxxx----------------------------| 
Ab|---------------xxxxxxxxxx----------------------------| 
Db|---------------xxxxxxxxxx----------------------------| 

eb|-----------------------------------------------------|
Bb|-4h7-7-7-7-7-4----------10101010101010-7-7-7-7-7-7---|  This also gets 
Gb|-3---3-3-3-3-3-----------7-7-7-7-7-7-7-6-6-6-6-6-6---|  played two times.
Db|---------------xxxxxxxxxx----------------------------| 
Ab|---------------xxxxxxxxxx----------------------------| 
Db|---------------xxxxxxxxxx----------------------------| 

       Guitar Three
eb|--------------------|
Bb|------2-3-2---------| This gets played underneath the 
Gb|--2-4-------4-2-----| rest of the song, where the xs are.
Db|--------------------| repeat this three times each time.
Ab|--------------------| 
Db|--------------------| 
(For an alternate way to play the intro, look at the bottom)

Verse:
eb|--------------------------------------------------------------------|
Bb|--------------------------------------------------------------------|
Gb|--------------------------------------------------------------------| 	
Db|-2-4-4-4-2--4-2-4-2-4-4-2-4-2--2-4-4-4-2--2-4-4-4-2--4-4-2-4-4-4-2--| 
Ab|-2-4-4-4-2--4-2-4-2-4-4-2-4-2--2-4-4-4-2--2-4-4-4-2--4-4-2-4-4-4-2--|
Db|-2-4-4-4-2--4-2-4-2-4-4-2-4-2--2-4-4-4-2--2-4-4-4-2--4-4-2-4-4-4-2--|              

eb|-----------------------------------------------4--------------------|
Bb|-----------------------------------------------4--------------------|
Gb|-----------------------------------------------4--------------------| 	
Db|-xxxxxxx--2-4-2-4-/7-4-2-4-2-xxxxxxx-2-4-4-4-2----2-4-4-4-2---------| 
Ab|-xxxxxxx--2-4-2-4-/7-4-2-4-2-xxxxxxx-2-4-4-4-2----2-4-4-4-2---------| 
Db|-xxxxxxx--2-4-2-4-/7-4-2-4-2-xxxxxxx-2-4-4-4-2----2-4-4-4-2---------| 
                                                  +
Chorus One                                                
eb|-----------------------------------|
Bb|-7----------7-----------5-5--------| After this, play the chorus again. 
Gb|-6--7-------6--7--------4-4--------| It gets played the same way.	
Db|-7--5--0-0--7--5--0-0-0------------| 
Ab|-5--3--0-0--5--3--0-0-0------------| 
Db|-------0-0--------0-0-0------------| 
                     .....pm 
Chorus Two: Guitar One
eb|-----------------------------------------------|
Bb|--7----------7----------7----------7-----------| Pretty much the same
Gb|--6--7-------6--7-------6--7-------6--7--------| as before but with more
Db|--7--5--0-0--7--5--0-0--7--5--0-0--7--5--0-0---| distortion.
Ab|--5--3--0-0--5--3--0-0--5--3--0-0--5--3--0-0---| 
Db|--------0-0--------0-0--------0-0--------0-0---| 

             Guitar Two
eb|--------------------------------------|
Bb|--15--14--15--11----15--14--15--17----|Bend a step or so up on the
Gb|---x---x---x---x-----x---x---x---x----| last set of octaves.	
Db|--12--11--12---9----12--11--12--14----|
Ab|--------------------------------------| 
Db|--------------------------------------| 

Bridge
eb|------------------------------------------|
Bb|------------------------------------------|Play this four times.
Gb|------------------------------------------| After this, play the
Db|--4-5-7-2-3-4-5-7-2-3-4-5-7-2-3-4-5-7-8---| verse part again.
Ab|--4-5-7-2-3-4-5-7-2-3-4-5-7-2-3-4-5-7-8---| 
Db|--4-5-7-2-3-4-5-7-2-3-4-5-7-2-3-4-5-7-8---| 

For the last time the chorus is played, guitar one plays the same thing. 
Two plays this under it.
eb|---------------------------------------|
Bb|-15--14--15-10--8--7--15--14--15--17---|
Gb|--x---x---x--x--x--x---x---x---x---x---| 	
Db|-12--11--12--7--5--4--12--11--12--14---| 
Ab|---------------------------------------| 
Db|---------------------------------------| 

Out: Play the verse stuff until he starts singing "Where are you...", then play...
Guitar One
eb|------------------------------------------------------------|
Bb|------2-3-2------2-3-2-----2-3-----2-3-2-----2-3-2-----2-3--|
Gb|--2-4------4-2-4------4-2-4-----2-4-----4-2-4-----4-2-4-----| 	
Db|------------------------------------------------------------| 
Ab|------------------------------------------------------------| 
Db|------------------------------------------------------------|
 
Guitar Two
eb|-------5-------5-------5----------|
Bb|----------------------------------|Play this twice.
Gb|---6-7---7-6-7---7-6-7---7--------| 	
Db|----------------------------------| 
Ab|----------------------------------| 
Db|---------------------------0-0-0--| 
And then you are done.  Have fun.


***If you wanna put guitar one and two togeather for the intro and stuff, this
	is the best way I found to play it.  I am pretty sure that there are three
	guitars playing there, (I could be wrong), but this sounds good to blend
	them togeather (or maybe I'm just on crack).***
eb|-----------------------5-5-5-5-5-5-5--2-2-2-2-2-2---|
Bb|-5-7-7-7-7-5-----------5-5-5-5-5-5-5--2-2-2-2-2-2---|
Gb|-4-4-4-4-4-4-----------6-6-6-6-6-6-6--4-4-4-4-4-4---| 	
Db|-2-4-4-4-4-2--xxxxxxx--7-7-7-7-7-7-7--4-4-4-4-4-4---| 
Ab|-2-4-4-4-4-2--xxxxxxx--5-5-5-5-5-5-5--2-2-2-2-2-2---| 
Db|-2-4-4-4-4-2--xxxxxxx-------------------------------|


| /  slide up
| \  slide down
| h  hammer-on
| p  pull-off
| ~  vibrato
| +  harmonic
| x  Mute note
|...(pm) Palm Mute
===============================================================================
Добавлено: 25.10.2013
Другие материалы по этой песне:
  • Аккорды и текст

Страница создана 10.03.2012
http://primanota.ru/finch/a-piece-of-mind-chords.htm
Привет, Гость.
Предлагаем пройти революционный курс по гитаре.
Подарок от PrimaNota.Ru, забирай!