PrimaNota.ru - самый крупный в мире бесплатный архив песенных текстов, аккордов, табулатур и нот


Final Prayer - Wartime - таба, видео

Регистрация Запомнить меня
Войти через:  Facebook Google Twitter Vk Yandex Mail.ru

Final Prayer - Wartime - таба, видео

Печатать
Просмотров: 110
-------------------------------------------------------------------------------
                    Wartime - Final Prayer
-------------------------------------------------------------------------------

ARTIST   : Final Prayer
SONG     : Wartime
ALBUM    : Filling The Void
TABBED BY: h8urlife
C-TUNING : C-F-Bb-Eb-G-C






Intro:

C#|-----------------------------------------------------------------|
G#|-----------------------------------------------------------------|
E#|-----------------------------------------------------------------|
B#|-------------------------7--10-10-7------------------------------| 
F#|-2-----5-----2-----7/6---5--8--8--5-2-----5-----2-----7/6---8--3-|
C#|-0-0-0-3-0-0-0-0-0-5/4-0------------0-0-0-3-0-0-0-0-0-5/4-0-6--1-|
      . .   . .   . .     .              . .   . .   . .     .                  

C#|-----------------------------------------------------------------|
G#|-----------------------------------------------------------------|
E#|-----------------------------------------------------------------|
B#|-------------------------7--10-10-7------------------------------| 
F#|-2-----5-----2-----7/6---5--8--8--5-2-----5---------9--8--3------|
C#|-0-0-0-3-0-0-0-0-0-5/4-0------------0-0-0-3--0-0-0--7--6--1------|
      . .   . .   . .     .              . .    . . .                  




C#|-----------------------------------------------------------------|
G#|-----------------------------------------------------------------|
E#|-----------------------------------------------------------------|
B#|-------------------------7--10-10-7------------------------------| 
F#|-2-----5-----2-----7/6---5--8--8--5-2-----5-----2-----7/6---8--3-|
C#|-0-0-0-3-0-0-0-0-0-5/4-0------------0-0-0-3-0-0-0-0-0-5/4-0-6--1-|
      . .   . .   . .     .              . .   . .   . .     .                  

C#|-----------------------------------------------------------------|
G#|-----------------------------------------------------------------|
E#|-----------------------------------------------------------------|
B#|-------------------------7--10-10-7--------------------------^---| 
F#|-2-----5-----2-----7/6---5--8--8--5-2-----5---------9--8--3--8~--|
C#|-0-0-0-3-0-0-0-0-0-5/4-0------------0-0-0-3--0-0-0--7--6--1------|
      . .   . .   . .     .              . .    . . .   





Verse:

C#|-----------------------------------------------------------------|
G#|-----------------------------------------------------------------|
E#|-----------------------------------------------------------------|
B#|-------------------------7--10-10-7------------------------------| 
F#|-2-----5-----2-----7/6---5--8--8--5-2-----5-----2-----7/6---8--3-|
C#|-0-0-0-3-0-0-0-0-0-5/4-0------------0-0-0-3-0-0-0-0-0-5/4-0-6--1-|
      . .   . .   . .     .              . .   . .   . .     .                  

C#|-----------------------------------------------------------------|
G#|-----------------------------------------------------------------|
E#|-----------------------------------------------------------------|
B#|-------------------------7--10-10-7------------------------------| 
F#|-2-----5-----2-----7/6---5--8--8--5-2-----5---------9--8--3------|
C#|-0-0-0-3-0-0-0-0-0-5/4-0------------0-0-0-3--0-0-0--7--6--1------|
      . .   . .   . .     .              . .    . . .       




Chorus:

C#|---------------------------------------------------|
G#|---------------------------------------------------|
E#|---------------------------------------------------|
B#|---------------------------------------3-3---------| 
F#|-5-5-5-------5-5-5-6-6-6-2-2-2-------5-----5-8-8---|
C#|-3-3-3-3-333-3-3-3-4-4-4-0-0-0-0-000-------3-6-6---|
          . ...                   . ...               

C#|---------------------------------------------------|
G#|---------------------------------------------------|
E#|---------------------------------------------------|
B#|---------------------------------------------------| 
F#|-5-5-5-------5-5-5-6-6-6-2-2--2-2-2--2-2-2--2-8--3-|
C#|-3-3-3-3-333-3-3-3-4-4-4-0-0--0-0-0--0-0-0--0-6--1-|
          . ...             . .  . . .  . . .  .                          




Bridge:

C#|----------------------------------------------------------|
G#|----------------------------------------------------------|
E#|----------------------------------------------------------|
B#|-----------------------7-9------------------------9-5-----| 
F#|-2---------------------5/7--2---------------------7\3-----|
C#|-0-000-000-000-000-000------0-0-0-0-0-0-0-0-0-0-0---------|
      ... ... ... ... ...        . . . . . . . . . .                        


C#|----------------------------------------------------------|
G#|----------------------------------------------------------|
E#|----------------------------------------------------------|
B#|-----------------------7-9--5--5-5/7--4--4----------------| 
F#|-2---------------------5/7--3--3-3/5--2--2-6-5-3----------|
C#|-0-000-000-000-000-000---------------------4-3-1----------|
      ... ... ... ... ...                     . . .   



C#|----------------------------------------------------------|
G#|----------------------------------------------------------|
E#|----------------------------------------------------------|
B#|-----------------------7-9------------------------9-5-----| 
F#|-2---------------------5/7--2---------------------7\3-----|
C#|-0-000-000-000-000-000------0-0-0-0-0-0-0-0-0-0-0---------|
      ... ... ... ... ...        . . . . . . . . . . 



C#|--------------------------------------------------------------------|
G#|--------------------------------------------------------------------|
E#|--------------------------------------------------------------------|
B#|-----------------------7-9--5--5-5/7--4--4-------7-7-7-9-5----------| 
F#|-2---------------------5/7--3--3-3/5--2--2-6-5-3-5-5-5/7-3-----8--3-|
C#|-0-000-000-000-000-000---------------------4-3-1-----------000-6--1-|
      ... ... ... ... ...                     . . .           ...





Verse:

C#|-----------------------------------------------------------------|
G#|-----------------------------------------------------------------|
E#|-----------------------------------------------------------------|
B#|-------------------------7--10-10-7------------------------------| 
F#|-2-----5-----2-----7/6---5--8--8--5-2-----5-----2-----7/6---8--3-|
C#|-0-0-0-3-0-0-0-0-0-5/4-0------------0-0-0-3-0-0-0-0-0-5/4-0-6--1-|
      . .   . .   . .     .              . .   . .   . .     .                  

C#|-----------------------------------------------------------------|
G#|-----------------------------------------------------------------|
E#|-----------------------------------------------------------------|
B#|-------------------------7--10-10-7------------------------------| 
F#|-2-----5-----2-----7/6---5--8--8--5-2-----5---------9--8--3------|
C#|-0-0-0-3-0-0-0-0-0-5/4-0------------0-0-0-3--0-0-0--7--6--1------|
      . .   . .   . .     .              . .    . . . 
    




Chorus:

C#|---------------------------------------------------|
G#|---------------------------------------------------|
E#|---------------------------------------------------|
B#|---------------------------------------3-3---------| 
F#|-5-5-5-------5-5-5-6-6-6-2-2-2-------5-----5-8-8---|
C#|-3-3-3-3-333-3-3-3-4-4-4-0-0-0-0-000-------3-6-6---|
          . ...                   . ...               

C#|---------------------------------------------------|
G#|---------------------------------------------------|
E#|---------------------------------------------------|
B#|---------------------------------------------------| 
F#|-5-5-5-------5-5-5-6-6-6-2-2--2-2-2--2-2-2--2-8--3-|
C#|-3-3-3-3-333-3-3-3-4-4-4-0-0--0-0-0--0-0-0--0-6--1-|
          . ...             . .  . . .  . . .  . 





Before Breakdown:

C#|---------------------------------------------------------------|
G#|---------------------------------------------------------------|
E#|---------------------------------------------------------------|
B#|---------------------------------------------------------------| 
F#|-2--2-2-2-2-2-2-2-2-2-2-2-2-2-3-2--2-2-2-2-2-2-2-2-2-2-2-2-2-2-|
C#|-0--0-0-0-0-0-0-0-0-0-0-0-0-0-1-0--0-0-0-0-0-0-0-0-0-0-0-0-0-0-|
       . . . . . . . . . . . . .      . . . . . . . . . . . . . .       





Breakdown:

C#|-----------------------------------------------------------------|
G#|-----------------------------------------------------------------|
E#|-----------------------------------------------------------------|
B#|-----------------------------------------------------------------| 
F#|-----------------------3-----------------------------------------|
C#|-0-0-0-1-0-3-0-1-0-0-0---0-1-0-3-0-0-0-1-0-3-0-1-000-0-0-0-0-000-|
      . .   .   .     . .   .   .     . .   .   .   ... . . . . ...  




C#|-----------------------------------------------------------------|
G#|-----------------------------------------------------------------|
E#|-----------------------------------------------------------------|
B#|-----------------------5-----------------------------------------| 
F#|-2-----3---5---3-2-----3---3---5-2-----3---5---3-----------------|
C#|-0-0-0-1-0-3-0-1-0-0-0---0-1-0-3-0-0-0-1-0-3-0-1-000-0-0-0-0-000-|
      . .   .   .     . .   .   .     . .   .   .   ... . . . . ... 




Final Prayer rulez!!!

www.finalprayer.de

www.myspace.com/finalprayer
Добавлено: 13.04.2012
Другие материалы по этой песне:

Страница создана 13.04.2012
http://primanota.ru/final-prayer/wartime-chords.htm
Привет, Гость.
Предлагаем пройти революционный курс по гитаре.
Подарок от PrimaNota.Ru, забирай!