PrimaNota.ru - самый крупный в мире бесплатный архив песенных текстов, аккордов, табулатур и нот


Final Prayer - The Anthem - таба, видео

Регистрация Запомнить меня
Войти через:  Facebook Google Twitter Vk Yandex Mail.ru

Final Prayer - The Anthem - таба, видео

Печатать
Просмотров: 87
-------------------------------------------------------------------------------
                    The Anthem - Final Prayer
-------------------------------------------------------------------------------

ARTIST   : Final Prayer
SONG     : The Anthem
ALBUM    : Right Here, Right Now
TABBED BY: h8urlife
C-TUNING : C-F-Bb-Eb-G-C


Intro:

C#|------------------------------------------------------------------|
G#|------------------------------------------------------------------|
E#|------------------------------------------------------------------|
B#|-5--7--8--9--------------------5--7--8--10-10-10-10-10-5--5--5--5-|
F#|-3--5--6--7--------------------3--5--6--8--8--8--8--8--3--3--3--3-|
C#|------------0-0-0-0-0-0-0-0-0-------------------------------------|
               . . . . . . . . .


Verse:

C#|-------------------------------------------------------------|
G#|-------------------------------------------------------------|
E#|-------------------------------------------------------------|
B#|--------9-10-------------------------9-10--------------------|
F#|-3-2-2--7-8----10-9----5-7-7--3-2-2--7-8----10-9-----------2-|
C#|-1-0-0-------0-8--7--0-3-5-5--1-0-0-------0-8--7-0--111111-0-|
                                                       ......


C#|-----------------------------------------------|
G#|-----------------------------------------------|
E#|-----------------------------------------------|
B#|-----------------------------------------------|
F#|-7~---5~---8~---3~-----7~---5~---8~---3~-------|
C#|-----------------------------------------------|


Chorus:

C#|-----------------------------------------------|
G#|-----------------------------------------------|
E#|-----------------------------------------------|
B#|--9\--------9--7--9--10--10-12~----12--10-7----|
F#|--7\----2~--7--5--7--8---8--10~----10--8--5----|
C#|--7\-0--0~--7--5--7--8---8--10~----10--8--5----|
        .


Breakdown:

C#|-----------------------------------------------------|
G#|-----------------------------------------------------|
E#|-----------------------------------------------------|
B#|----------------------10-----------------------------|
F#|----------------------8--------------------2---------|
C#|-0--0-00000--0--0-000----0-00000--0--0-000-0-0-00000-|
    .  . .....  .  . ...    . .....  .  . ...   . .....


C#|-----------------------------------------------------------|
G#|-----------------------------------------------------------|
E#|-----------------------------------------------------------|
B#|----------10-------------------9--7--10-9------------------|
F#|----------8--------------------7--5--8--7--6-6-6-6-3--3--3-|
C#|-0--0-000----0-00000--0--0-000-------------4-4-4-4-1--1--1-|
    .  . ...    . .....  .  . ...             . . . . .  .  .

C#|-----------------------------------------------|
G#|-----------------------------------------------|
E#|-----------------------------------------------|
B#|-----------------------------------------------|
F#|-7~---5~---8~---3~-----7~---5~---8~---3~-------|
C#|-----------------------------------------------|

C#|-----------------------------------------------------------------|
G#|-----------------------------------------------------------------|
E#|-----------------------------------------------------------------|
B#|-9-9--9--9-9--9-7-7--7--7-7--7--10-10-10-10-10-10-5-5--5--5-5--5-|
F#|-7-7--7--7-7--7-5-5--5--5-5--5--8--8--8--8--8--8--3-3--3--3-3--3-|
C#|-----------------------------------------------------------------|


C#|----------------------------------------------------------|
G#|----------------------------------------------------------|
E#|----------------------------------------------------------|
B#|------------------------------------------------9--7--10--|
F#|------------------------------------------------7--5--8---|
C#|-0-0--0-0-0--0-0-0--0-0-0--0-0-0--0-0-0--0-0-0--7--5--8---|
    . .  . . .  . . .  . . .  . . .  . . .  . . .

Chorus:

C#|-----------------------------------------------|
G#|-----------------------------------------------|
E#|-----------------------------------------------|
B#|--9\--------9--7--9--10--10-12~----12--10-7----|
F#|--7\----2~--7--5--7--8---8--10~----10--8--5----|
C#|--7\-0--0~--7--5--7--8---8--10~----10--8--5----|
        .


Outro:

C#|------------------------------------------------------------------|
G#|------------------------------------------------------------------|
E#|------------------------------------------------------------------|
B#|-5--7--8--9--------------------5--7--8--10-10-10-10-10-5--5--5--5-|
F#|-3--5--6--7--------------------3--5--6--8--8--8--8--8--3--3--3--3-|
C#|------------0-0-0-0-0-0-0-0-0-------------------------------------|
               . . . . . . . . .


Final Prayer rulez!!!

www.finalprayer.de

www.myspace.com/finalprayer
Добавлено: 09.03.2012
Другие материалы по этой песне:

Страница создана 09.03.2012
http://primanota.ru/final-prayer/the-anthem-chords.htm
Привет, Гость.
Предлагаем пройти революционный курс по гитаре.
Подарок от PrimaNota.Ru, забирай!