PrimaNota.ru - самый крупный в мире бесплатный архив песенных текстов, аккордов, табулатур и нот


Final Prayer - No Place To Turn - таба, видео

Регистрация Запомнить меня
Войти через:  Facebook Google Twitter Vk Yandex Mail.ru

Final Prayer - No Place To Turn - таба, видео

Печатать
Просмотров: 104
-------------------------------------------------------------------------------
                          No Place To Turn - Final Prayer
-------------------------------------------------------------------------------

ARTIST   : Final Prayer
SONG     : No Place To Turn
ALBUM    : Right Here, Right Now
TABBED BY: h8urlife
C-TUNING : C-F-Bb-Eb-G-C


Intro:

C#|-----------------------------------------------------|
G#|-----------------------------------------------------|
E#|-----------------------------------------------------|
B#|-----------------------------------------------------|
F#|-1-3-4-3-2~----7--8---1-3-4-3-2~----8--10--1-3-4-3-2-|
C#|-1-3-4-3-0~--0--------1-3-4-3-0~--0--------1-3-4-3-0-|
    . . . .              . . . .              . . . .


Verse:

C#|--------------------------------------------------------------------------|
G#|--------------------------------------------------------------------------|
E#|--------------------------------------------------------------------------|
B#|-----------------9-10--------------9-7------------------------------------|
F#|-2------2----2---7-8------2----2---7-5------5----5------6-3------3-5------|
C#|-0-0000-0-00-0-0-----0000-0-00-0-0-----3333-3-33-3-3333-4-1-1111-1-3-3333-|
      ....   ..   .     ....   ..   .     ....   ..   ....     ....     ....


Chorus:

C#|-------------------------------------|
G#|-------------------------------------|
E#|-------------------------------------|
B#|-------------------------------------|
F#|-2----7-8----5----8---2--8--7--5-----|
C#|-0----5-6----3----6---0--6--5--3-----|

Bridge:

C#|--------------------------------------------------------------|
G#|--------------------------------------------------------------|
E#|--------------------------------------------------------------|
B#|---------8-7-----------------------------8-7---5-5-5-7-7-7-7--|
F#|-2---2---6-5---2-----------------2---2---6-5---3-3-3-5-5-5-5--|
C#|-0-0-0-0-----0-0--0-0-0-0-0-0-0--0-0-0-0-----0----------------|
      .   .     .    . . . . . . .    .   .     .

Breakdown:


C#|-------------------------------------|
G#|-------------------------------------|
E#|-------------------------------------|
B#|-------------------------------------|
F#|-2-2-2--2-2-2-2-2---2-2--2-2-2-2--2--|
C#|-0-0-0--0-0-0-0-0---0-0--0-0-0-0--0--|
    . . .  . . . . .   . .  . . . .  .


Verse:

C#|--------------------------------------------------------------------------|
G#|--------------------------------------------------------------------------|
E#|--------------------------------------------------------------------------|
B#|-----------------9-10--------------9-7------------------------------------|
F#|-2------2----2---7-8------2----2---7-5------5----5------6-3------3-5------|
C#|-0-0000-0-00-0-0-----0000-0-00-0-0-----3333-3-33-3-3333-4-1-1111-1-3-3333-|
      ....   ..   .     ....   ..   .     ....   ..   ....     ....     ....


Chorus:

C#|-------------------------------------|-----|
G#|-------------------------------------|-----|
E#|-------------------------------------|-----|
B#|-------------------------------------|-----|
F#|-2----7-8----5----8---2--8--7--5-----|--3--|
C#|-0----5-6----3----6---0--6--5--3-----|--1--|


Outro:

C#|-----------------------------------------------------------------|
G#|-----------------------------------------------------------------|
E#|-----------------------------------------------------------------|
B#|-----------------------------------------------------------------|
F#|-3-3-3-2-2-2-6-6-6-5-5-5-3-3-5-5-3-3-3-2-2-2-2-2-2-2-2-2-2-2-2-2-|
C#|-1-1-1-0-0-0-4-4-4-3-3-3-1-1-3-3-1-1-1-0-0-0-0-0-0-0-0-0-0-0-0-0-|
    . . . . . . . . . . . . . . . . . . . . . . . . . . . . . . . .


C#|-----------------------------------------------------------------|
G#|-----------------------------------------------------------------|
E#|-----------------------------------------------------------------|
B#|-----------------------------------------------------------------|
F#|-3-3-3-2-2-2-6-6-6-5-5-5-3-3-5-5-3-3-3-2-2-2-2-2-2-2-2-2-2-2-2-2-|
C#|-1-1-1-0-0-0-4-4-4-3-3-3-1-1-3-3-1-1-1-0-0-0-0-0-0-0-0-0-0-0-0-0-|
                                                      . . . . . . .


Final Prayer rulez!!!

www.finalprayer.de

www.myspace.com/finalprayer
Добавлено: 28.03.2012
Вам также может быть интересно:
Другие материалы по этой песне:
  • Аккорды и текст

Страница создана 28.03.2012
http://primanota.ru/final-prayer/no-place-to-turn-chords.htm
Привет, Гость.
Предлагаем пройти революционный курс по гитаре.
Подарок от PrimaNota.Ru, забирай!