PrimaNota.ru - самый крупный в мире бесплатный архив песенных текстов, аккордов, табулатур и нот


Final Prayer - In Denial - таба, видео

Регистрация Запомнить меня
Войти через:  Facebook Google Twitter Vk Yandex Mail.ru

Final Prayer - In Denial - таба, видео

Печатать
Просмотров: 148
-------------------------------------------------------------------------------
                    In Denial - Final Prayer
-------------------------------------------------------------------------------

ARTIST   : Final Prayer
SONG     : In Denial
ALBUM    : Filling The Void
TABBED BY: h8urlife
C-TUNING : C-F-Bb-Eb-G-C




Intro:

C#|---------------------------------------------------------------|
G#|---------------------------------------------------------------|
E#|---------------------------------------------------------------|
B#|---------------------------------------------------------------| 
F#|-------7--7-7-7-------8--8-8-8-------7--7-7-7--9--8--5--6------|
C#|-00000----------00000----------00000-----------7--6--3--4------|
    .....          .....          .....                                            


C#|---------------------------------------------------------------|
G#|---------------------------------------------------------------|
E#|---------------------------------------------------------------|
B#|---------------------------------------------------------------| 
F#|-------7--7-7-7-------8--8-8-8-------7--7-7-7--2-2--2-2-2--2-2-|
C#|-00000----------00000----------00000-----------0-0--0-0-0--0-0-|
    .....          .....          .....           . .  . . .  . .   




Verse:
     
C#|---------------------------------------------------------------|
G#|---------------------------------------------------------------|
E#|---------------------------------------------------------------|
B#|---------------------------------------------------------------| 
F#|-------7--7-7-7-------8--8-8-8-------7--7-7-7--9--8--5--6------|
C#|-00000----------00000----------00000-----------7--6--3--4------|
    .....          .....          .....                                            


C#|---------------------------------------------------0~----------|
G#|---------------------------------------------------0~----------|
E#|---------------------------------------------------------------|
B#|---------------------------------------------------------------| 
F#|-------7--7-7-7-------8--8-8-8-------7--7-7-7--2~--------------|
C#|-00000----------00000----------00000-----------0~--------------|
    .....          .....          .....                                            





C#|---------------------------------------------------------------|
G#|---------------------------------------------------------------|
E#|---------------------------------------------------------------|
B#|---------------------------------------------------------------| 
F#|-------7--7-7-7-------8--8-8-8-------7--7-7-7--9--8--5--6------|
C#|-00000----------00000----------00000-----------7--6--3--4------|
    .....          .....          .....    

C#|----------------------------------------------------------------------|
G#|----------------------------------------------------------------------|
E#|----------------------------------------------------------------------|
B#|----------------------------------------------------------------------| 
F#|-------11--11-11-11-------12--12-12-12-------11--11-11-11--9--8--5--6-|
C#|-00000--------------00000--------------00000---------------7--6--3--4-|
    .....              .....              .....       




Before Break:

C#|----------------------------------------------|
G#|----------------------------------------------|
E#|----------------------------------------------|
B#|-----------------------------4-3--------------| 
F#|-2~----9--8--5--6--2~--------2-1---5---5-6-3--|
C#|-0~----7--6--3--4--0~------------0-3-0-3-4-1--|
                                    .   .   


C#|-------------------------------------------------------------------|
G#|-------------------------------------------------------------------|
E#|-------------------------------------------------------------------|
B#|------------------------8---9---5------------------4-3-------------| 
F#|-2----------------------6---7---3-2----------------2-1---5---5-6-3-|
C#|-0-0-0-0-0-0-0000-0-0-0---0---0---0-0-0-0-0-0-0000-----0-3-0-3-4-1-|
      . . . . . .... . . .   .   .     . . . . . ....     .   .        


C#|------------------------------|
G#|------------------------------|
E#|------------------------------|
B#|-5~----4~--4-4-4-4-4-4-4-4----| 
F#|-3~----2~--2-2-2-2-2-2-2-2----|
C#|------------------------------|
              . . . . . . . .                                   



Verse:
     
C#|---------------------------------------------------------------|
G#|---------------------------------------------------------------|
E#|---------------------------------------------------------------|
B#|---------------------------------------------------------------| 
F#|-------7--7-7-7-------8--8-8-8-------7--7-7-7--9--8--5--6------|
C#|-00000----------00000----------00000-----------7--6--3--4------|
    .....          .....          .....                                            


C#|---------------------------------------------------0~----------|
G#|---------------------------------------------------0~----------|
E#|---------------------------------------------------------------|
B#|---------------------------------------------------------------| 
F#|-------7--7-7-7-------8--8-8-8-------7--7-7-7--2~--------------|
C#|-00000----------00000----------00000-----------0~--------------|
    .....          .....          .....                                            





C#|---------------------------------------------------------------|
G#|---------------------------------------------------------------|
E#|---------------------------------------------------------------|
B#|---------------------------------------------------------------| 
F#|-------7--7-7-7-------8--8-8-8-------7--7-7-7--9--8--5--6------|
C#|-00000----------00000----------00000-----------7--6--3--4------|
    .....          .....          .....    

C#|----------------------------------------------------------------------|
G#|----------------------------------------------------------------------|
E#|----------------------------------------------------------------------|
B#|----------------------------------------------------------------------| 
F#|-------11--11-11-11-------12--12-12-12-------11--11-11-11--9--8--5--6-|
C#|-00000--------------00000--------------00000---------------7--6--3--4-|
    .....              .....              .....       




Before Break:

C#|----------------------------------------------|
G#|----------------------------------------------|
E#|----------------------------------------------|
B#|-----------------------------4-3--------------| 
F#|-2~----9--8--5--6--2~--------2-1---5---5-6-3--|
C#|-0~----7--6--3--4--0~------------0-3-0-3-4-1--|
                                    .   .  


Outro:

C#|-------------------------------------------------------------------|
G#|-------------------------------------------------------------------|
E#|-------------------------------------------------------------------|
B#|------------------------8---9---5------------------4-3-------------| 
F#|-2----------------------6---7---3-2----------------2-1---5---5-6-3-|
C#|-0-0-0-0-0-0-0000-0-0-0---0---0---0-0-0-0-0-0-0000-----0-3-0-3-4-1-|
      . . . . . .... . . .   .   .     . . . . . ....     .   .
   




Final Prayer rulez!!!

www.finalprayer.de

www.myspace.com/finalprayer
Добавлено: 19.04.2012
Другие материалы по этой песне:
  • Аккорды и текст

Страница создана 19.04.2012
http://primanota.ru/final-prayer/in-denial-chords.htm
Привет, Гость.
Предлагаем пройти революционный курс по гитаре.
Подарок от PrimaNota.Ru, забирай!