PrimaNota.ru - самый крупный в мире бесплатный архив песенных текстов, аккордов, табулатур и нот


Final Fantasy - This Lamb Sells Condos - таба, видео

Регистрация Запомнить меня
Войти через:  Facebook Google Twitter Vk Yandex Mail.ru

Final Fantasy - This Lamb Sells Condos - таба, видео

Печатать
Просмотров: 119
This is a tab for a song by Owen Pallett, no connection with the Final Fantasy games. 
just what I play so don't expect too much accuracy. Have Fun! Hope you enjoy the song.

INTRO
|----5-5-5--5-5---5-3-2---2------------2--------2------5-5---5-5---5-----------------------------------|
|---------------3-------5---3--------3----3----------3-----3-----3----------3---3---3-------3----------|
|-----------------------------4-2--4--------4-2----2------------------2-2-2-------------2-4-----2or4---|
|-----------------------------------------------------------------------------5---4---5-------4--------|
|---(2)--------------(4)-(5)-----------------(4)--(2)--------------------------------------------------|
|--------------------------------------------------------------------(3)-(0)---------------------------|

The Notes in the brackets are the bass notes. they're hard to pick along with the 
but it doesn't sound right without them. I guess it's best to play the song with 2 guitars. 
in the original song this Intro is played an octave higher, but that's pretty tough on acoustic guitar.

VERSE
|---2----2---------------------------|
|---3----3----7----7----3----3----0--|
|---4----4----7----7----4----4----0--|
|-------------7----7----4----5----2--|
|-2----4----5----4----2--------------|
|--------------------------3----0----|

BRIDGE
--2---5---2---5----|
--3---7---3---7----|
--4---7---4---7----|
--4---7---4---7----|
--2---5---2---5----|
-------------------|

OUTRO
|--2---5---3---2------------------|
|--3---5---3---2------------------|
|--4---6---4---2------------------|
|--4---7---5---4------------------|
|--2---7---5---4------------------|
|------5---3---2------------------|

LYRICS:
No hope for the village, no hope for the village
There's a merchant in our midst and with a barrel fist
He's coloured every surface, he's slapped up a portrait
And yes, it is his own! He's gonna take your home!
Have you seen our visitor? Look! Over the treetops!
Newly conjured erections are making him a killing
And Richmond St. is illing, so the graduates are willing
To buy in to the pillage, now there is no hope for the village

Prisoners, be silent, be silent and be sharp

When he was a young man, he conjured up a firemare
And burnt off both his eyebrows and half a head of hair
And then as an apprentice, he took a Drowish mistress
Who bestowed upon his youthfulness a sense of Champagne Chic
Oh seduction, his seduction to the world of construction
Now his mind will start to wander when he's not at his computer
And his massive genitals refuse to co-operate
no amount of therapy can hope to save his marriage

Prisoners, be silent, be silent and be sharp
Can you hear them talking? Listen through the wall:

Nothing to do, nothing to do
Living rent-free is boring me
Got no use for my PE Degree
Got no use for my pedigree

I feed you every morning and ask so little
But you belittle all the work that I do
When you take that walk without permission
I'm not defensive, I'm just saying this cause I love you
You know I hate it when your friends are in the pool
Old money stinks, send those faggots back to Forest Hill
Contentment? What contentment? I am bald and impotent
Is that what it's about? Oh honey, honey, shut your mouth
Добавлено: 03.11.2013
Вам также может быть интересно:
Другие материалы по этой песне:
  • Аккорды и текст

Страница создана 03.11.2013
http://primanota.ru/final-fantasy/this-lamb-sells-condos-chords.htm
Привет, Гость.
Предлагаем пройти революционный курс по гитаре.
Подарок от PrimaNota.Ru, забирай!