PrimaNota.ru - самый крупный в мире бесплатный архив песенных текстов, аккордов, табулатур и нот


Final Fantasy - Balamb - таба, видео

Регистрация Запомнить меня
Войти через:  Facebook Google Twitter Vk Yandex Mail.ru

Final Fantasy - Balamb - таба, видео

Печатать
Просмотров: 85
e|-------2-------2-------2-------2-------0-------0-------3-------3-|
B|-----0-----0---------0-----0---------0-----0---------0-----0-----|
G|---2---------2-----2---------2-----0---------0-----0---------0---|
D|-0---------------0---------------0---------------0---------------|
A|-----------------------------------------------------------------|
E|-----------------------------------------------------------------|

e|-------2-------2--------2-------2-------0-------0--3-----2-----0---|
B|-----0-----0----------0-----0---------0-----0--------3-----3-----3-|
G|---2---------2------2---------2-----0---------0--------0-----0-----|
D|-0----------------0---------------0--------------------------------|
A|-------------------------------------------------------------------|
E|-------------------------------------------------------------------|

e|-------2-------2-------2h3p2-----2--------0-------0-------3-----3---|
B|-----2-----2---------2-------2----------3-----3-------2-----2-----2-|
G|---2---------2-----2-----------2------0---------0-------4-----4-----|
D|-0---------------0------------------0---------------0---------------|
A|--------------------------------------------------------------------|
E|--------------------------------------------------------------------|

e|-------2-------2--5-----3-----2---3-----2-----3----3-|
B|-----0-----0--------0-----0-----0---0-----0-----0--3-|
G|---2---------2--------0-----0---------0-----0--------|
D|-0---------------------------------------------------|
A|-----------------------------------------------------|
E|-----------------------------------------------------|

e|-2-----2-------2--5-----5-------5--7-----7-------7--5-----5-------5-|
B|---3-------3--------6-------6--------8-------8--------7-------7-----|
G|-----2-------2--------5-------5--------7-------7--------7-------7---|
D|--------------------------------------------------------------------|
A|--------------------------------------------------------------------|
E|--------------------------------------------------------------------|

e|-2-----2-------2--5-----5-------5--7-----7-------7-------14---------|
B|---3-------3--------6-------6--------8-------8-------10------15--10-|
G|-----2-------2--------5-------5--------7-------7--------------------|
D|--------------------------------------------------------------------|
A|--------------------------------------------------------------------|
E|--------------------------------------------------------------------|

e|-------3-------3-5-----3-------3--3-----3-------3-5-----3-------3-|
B|-----3-----3-------3-------3----------3-----3-------3-------3-----|
G|---4---------4-------4-------4------4---------4-------4-------4---|
D|-0----------------------------------------------------------------|
A|------------------------------------------------------------------|
E|------------------------------------------------------------------|

e|-------2-------2-------2-------2--------0----------3-|
B|-----0-----0-------0-------0----------3-----3---3--3-|
G|---2---------2-------2-------2------3---------3----3-|
D|-0--------------------------------0------------------|
A|-----------------------------------------------------|
E|-----------------------------------------------------|
Добавлено: 21.08.2013
Другие материалы по этой песне:
  • Аккорды и текст

Страница создана 21.08.2013
http://primanota.ru/final-fantasy/balamb-chords.htm
Привет, Гость.
Предлагаем пройти революционный курс по гитаре.
Подарок от PrimaNota.Ru, забирай!