PrimaNota.ru - самый крупный в мире бесплатный архив песенных текстов, аккордов, табулатур и нот


Final Exit - Bent Out Of Shape - аккорды и текст, таба, видео

Регистрация Запомнить меня
Войти через:  Facebook Google Twitter Vk Yandex Mail.ru

Final Exit - Bent Out Of Shape - аккорды и текст, таба, видео

Печатать
Просмотров: 147
Bent Out Of Shape
Final Exit
oscar.widegren@nykoping.com

Intro:

E-------------------------------------------------
B-------------------------------------------------
G-------------------------------------------------
D-------------------------------------------2-2-2-
A-------------------------------------------------
E-0-0-0-3-2---0-0-0-3-2---0-0-0-3-2---0-0-0-------

Guitar:
second time:
E-------------------------------------------------
B-------------------------------------------------
G-------------------------------------------4-4-4-
D-------------------------------------------2-2-2-
A-------------------------------------------------
E-------------------------------------------------

fourth time:
E-------------------------------------------------
B-------------------------------------------------
G-------------------------------------------4-4-4-
D-------------------------------------------2-2-2-
A-------------------------------------2-2-2-------
E-------------------------------------0-0-0-------

E
Bent out of shape, he stepped to the side
His anger lost its focus and his focus lost pride
Cause the world he had known
And the boy he had been
Had vanished in the past and left him hollow from within
E                         G           A
Searching for identity, a punk in his youth
   E                     G           A
An outcast from society, looking for truth
   E
He wanted the unity, he argued for clarity
   E
He needed the answers so fucking bad that he believed them when they said
E     G        F#   E     G    F#
  The straight edge, will tell you why
E     G        F#         Ehi
  The straight edge, will never die
E     G        F#   E     G    F#
  The straight edge, just wait and see
E     G        F#         Ehi
  The straight edge, will set you free
Verse 2 (E G A E G A E)
E     G        F#   E     G    F#
  The straight edge, will tell you why
E     G        F#         Ehi
  The straight edge, will never die
E     G        F#   E     G    F#
  The straight edge, just wait and see
E     G        F#         Ehi
  The straight edge, will set you free
A-----1-1-1-1-1-0---
E-0-0-------------1- during bridge:
He couldn't get the ideals to match
And his unity was just out on loan
You see, the edges aren't straight from scratch
       E
That's why you gotta make your own
                       E                      Ab E+(00xxxx) G
Cause if you think the edge will set you free
    E                      Ab E+ G
The edge will set you free
    E                      Ab E+ G
The edge will set you free
E                       Ab E+ G
  You got another thing coming
    E                       Ab E+ G
The edge won't set you free
    E                       Ab E+ G
The edge won't set you free
    E                       Ab E+ G
The edge won't set you free
E            Ab  E+  G      E
  You better get yourself a life
Добавлено: 02.05.2012
Другие материалы по этой песне:
  • Аккорды и текст

Страница создана 02.05.2012
http://primanota.ru/final-exit/bent-out-of-shape-chords.htm
Привет, Гость.
Предлагаем пройти революционный курс по гитаре.
Подарок от PrimaNota.Ru, забирай!