PrimaNota.ru - самый крупный в мире бесплатный архив песенных текстов, аккордов, табулатур и нот


Filthy Thieving Bastards - Dumb Dead Goats - таба, видео

Регистрация Запомнить меня
Войти через:  Facebook Google Twitter Vk Yandex Mail.ru

Filthy Thieving Bastards - Dumb Dead Goats - таба, видео

Печатать
Просмотров: 99
-------------------------------------------------------------------------------
                 Dumb Dead Goats - Filthy Thieving Bastards
-------------------------------------------------------------------------------
Tabbed by: squintyjoefan
E-mail: squintyjoefan@hotmail.co.uk

Track 10 from the album "I'm a Son of a Gun"

Tuning: Standard (EADGBe)

Song Order

Intro
Verse (x2)
Chorus
Verse (x2)
Bridge
Chorus (x2)
Solo
Verse (x2)
Bridge
Chorus (x2)
Outro


Intro Notes

e|---------------------------------------------------------------------------|
B|---------------------------------------------------------------------------|
G|---------------------------------------------------------------------------|
D|---------------------------------------------------------------------------|
A|--------2------------------------------------------------------------------|
E|--3--5---------------------------------------------------------------------|


Verse

(Listen to the song for rhythm)

e|---------------------------------------------------------------------------|
B|--1--1-----------1--1-----1--1----------1--1-------------------------------|
G|--0--0----0--0---2--2-----0--0---0-0----2--2-------------------------------|
D|--2--2----2--2---2--2-----2--2---2-2----2--2-------------------------------|
A|--3--3----2--2---0--0-----3--3---2-2----0--0-------------------------------|
E|----------0--0-------------------0-0---------------------------------------|
    Cmaj    Emin   Amin     Cmaj   Emin   Amin

e|-------------------------333-----------------------------------------------|
B|--1--1----1--1-----------333-----------------------------------------------|
G|--0--0----2--2----4--44--444-----------------------------------------------|
D|--2--2----2--2----5--55--555-----------------------------------------------|
A|--3--3----0--0----5--55--555-----------------------------------------------|
E|------------------3--33--333-----------------------------------------------|
    Cmaj    Amin    Gmaj


Chorus ("Hey, is anybody listening")

e|---------------------------------------------------------------------------|
B|---------------------------------------------------------------------------|
G|---5---5---5---5-----------------------------------------------------------|
D|---5---5---5---5---2---2---2---2---3---3---3---5---5---5---5---------------|
A|-3-3-3-3-3-3-3-3---2---2---2---2---3---3---3---5---5---5---5---------------|
E|-----------------0-0-0-0-0-0-0-0-1-1-1-1-1-1-3-3-3-3-3-3-3-3---------------|
   C5              E5              F5          G5

Bridge ("The high horse you rode in on is as stubborn as a mule")

e|---------------------------------------------------------------------------|
B|---------------------------------------------------------------------------|
G|---5---5---5---5-----------------------------------------------------------|
D|---5---5---5---5---5---5---5---5---7---7---7---7---2---2---2---2-----------|
A|-3-3-3-3-3-3-3-3---5---5---5---5---7---7---7---7---2---2---2---2-----------|
E|-----------------3-3-3-3-3-3-3-3-5-5-5-5-5-5-5-5-0-0-0-0-0-0-0-0-----------|
   C5              G5              A5              E5

e|---------------------------------------------------------------------------|
B|---------------------------------------------------------------------------|
G|---------------------------------------------------------------------------|
D|---3---3---3---3----5---5---5---5------------------------------------------|
A|---3---3---3---3----5---5---5---5------------------------------------------|
E|-1-1-1-1-1-1-1-1--3-3-3-3-3-3-3-3------------------------------------------|
   F5               G5
                    Different rhythm with G5 (can use an open or barre chord)

Solo (Verse chords are played over the solo)

e|---------------------------------------------------------------------------|
B|------------------------------------------------------------8--------------|
G|-5-7-5-4-2-------5-7-5-4-2----------0-----2--------4----4-7---(7)----------|
D|-5----------2-2------------2-2--0/2---0/2------4/5---5---------------------|
A|---------------------------------------------------------------------------|
E|---------------------------------------------------------------------------|

e|---------------------------------------------------------------------------|
B|-----------------------------------------------------------------8---------|
G|-5-7-5-4-2-------5-7-5-4-2----------0-000------2--------4----4-7---(7)-----|
D|-5----------2-2------------2-2--0/2--------0/2------4/5---5----------------|
A|---------------------------------------------------------------------------|
E|---------------------------------------------------------------------------|

Outro

e|---------------------------------------------------------------------------|
B|--1--1-----------1--1-1~---------------------------------------------------|
G|--0--0---1--1----2--2-2~---------------------------------------------------|
D|--2--2---2--2----2--2-2~---------------------------------------------------|
A|--3--3---2--2----0--0-0~---------------------------------------------------|
E|---------0--0--------------------------------------------------------------|
    Cmaj   Emin    Amin

************************************

| /   slide up
| \   slide down
| h   hammer-on
| p   pull-off
| ~   vibrato
| +   harmonic
| x   Mute note
| b   Bend
| pb  Pre-bend
| br  Bend release
| pbr Pre-bend release
| brb Bend release bend

************************************
Добавлено: 06.11.2013
Вам также может быть интересно:
Другие материалы по этой песне:
  • Аккорды и текст

Страница создана 06.11.2013
http://primanota.ru/filthy-thieving-bastards/dumb-dead-goats-chords.htm
Привет, Гость.
Предлагаем пройти революционный курс по гитаре.
Подарок от PrimaNota.Ru, забирай!