PrimaNota.ru - самый крупный в мире бесплатный архив песенных текстов, аккордов, табулатур и нот


Filthy Thieving Bastards - Bad Afternoon Sun - таба, видео

Регистрация Запомнить меня
Войти через:  Facebook Google Twitter Vk Yandex Mail.ru

Filthy Thieving Bastards - Bad Afternoon Sun - таба, видео

Печатать
Просмотров: 83
-------------------------------------------------------------------------------
                Bad Afternoon Sun - Filthy Thieving Bastards
-------------------------------------------------------------------------------
Tabbed by: squintyjoefan
E-mail: squintyjoefan@hotmail.co.uk

Tuning: Standard (EADGBe)

Song can be found here: http://www.youtube.com/watch?v=JaAO_daEreA

Song order

Intro
Verse 1
Chorus 1
Verse 2
Chorus 2
Bridge
Solo
Outro


For chords, play each chord for one bar each unless specified otherwise.
Listen to the song for the rhythm.

Time codes are used in this tab as a rough outline.

Chords used in this song

e|---2-----0-------2------3-------3--------2-------1-------------------------|
B|---3-----2-------4------3-------2--------2-------1-------------------------|
G|---2-----2-------4------0-------2--------3-------2-------------------------|
D|---0-----2-------3------0-------2--------4-------3-------------------------|
A|---------0-------2------2-------0--------4-------3-------------------------|
E|------------------------3----------------2-------1-------------------------|
    Dmaj   Amaj   Bmin   Gmaj    Amaj*    F#maj    Fmaj


Intro (Chords)

[0.01-0.11]
Dmaj, Amaj, Bmin, Amaj, Gmaj, Dmaj, Amaj, Amaj*

[0.12-0.22]
Dmaj, Amaj, Bmin, Amaj, Gmaj, Amaj, Dmaj, Dmaj


Intro (Lead)


[0.03-0.12]

e|--5-3-2--3-2-0-----------------0-2---5-3-----------------------------------|
B|----------------3------2-3-2/3-----3-----7-5-5-3-2--2/3-3/5--3~------------|
G|---------------------------------------------------------------------------|
D|---------------------------------------------------------------------------|
A|---------------------------------------------------------------------------|
E|---------------------------------------------------------------------------|

[0.13-0.19]

e|-5-3-2~---3-2h3p2--(3)/7--5-5-3-2-3------------------2---------------------|
B|--------------------------------------7h8-(5)-7-5--3----5-3-2-5-3-2-3~-----|
G|---------------------------------------------------------------------------|
D|---------------------------------------------------------------------------|
A|---------------------------------------------------------------------------|
E|---------------------------------------------------------------------------|

[0.20-0.23]

e|-----5-5h7p5--3-2-3-2------------------------------------------------------|
B|-5/7-----------------------------------------------------------------------|
G|---------------------------------------------------------------------------|
D|---------------------------------------------------------------------------|
A|---------------------------------------------------------------------------|
E|---------------------------------------------------------------------------|

Verse 1

[0.22-0.31]
Dmaj, Amaj, Bmin, Amaj, Gmaj, Dmaj, Amaj, Amaj*

[0.32-0.42]
Dmaj, Amaj, Bmin, Amaj, Gmaj, Gmaj, Amaj, Amaj


Chorus 1

[0.42-0.48]
Dmaj, Dmaj, Amaj, Amaj (strum twice) to Gmaj (strum twice), F#maj, F#maj,

[0.49-0.52]
Bmin, Bmin (strum twice) to Amaj (strum once)

[0.52-0.59]
Dmaj, Dmaj, Amaj, Amaj (strum twice) to Gmaj (strum twice), F#maj, F#maj,

[0.59-1.02]
F#maj, Gmaj (strum once) to Amaj (strum twice)


Verse 2

[1.02-1.11]
Dmaj, Amaj, Bmin, Amaj, Gmaj, Dmaj, Amaj, Amaj*

[1.12-1.22]
Dmaj, Amaj, Bmin, Amaj, Gmaj, Gmaj, Amaj, Amaj


Chorus 2

[1.22-1.29]
Dmaj, Dmaj, Amaj, Amaj (strum twice) to Gmaj (strum twice), F#maj, F#maj,

[1.29-1.32]
Bmin, Bmin (strum twice) to Amaj (strum once)

[1.33-1.39]
Dmaj, Dmaj, Amaj, Amaj (strum twice) to Gmaj (strum twice), F#maj, F#maj,

[1.40-1.42]
F#maj, F#maj



Bridge

[1.43-1.52]
Gmaj, Dmaj, Amaj, Amaj, Gmaj, Dmaj, Amaj, Amaj,

[1.52-2.02]
Gmaj, Gmaj, Fmaj, Fmaj, Gmaj, Gmaj, Amaj, Amaj


Solo (Chords)

[2.03-2.12]
Dmaj, Amaj, Bmin, Amaj, Gmaj, Dmaj, Amaj, Amaj*

[2.13-2.20]
Dmaj, Amaj, Bmin, Amaj, Gmaj, Gmaj

[2.21-2.26]
Amaj, Amaj, Bmin, Bmin, Bmin,

[2.26-2.28]
Bmin (strum once), Amaj (strum once), Gmaj (strum twice)

[2.28-2.38]
F#maj, F#maj, F#maj, Bmin, Bmin (strum twice), Amaj (strum once)

[2.38-2.43]
Bmin, Bmin, Amaj, Amaj, F#maj, F#maj, F#maj, Gmaj, Amaj


Solo (Lead)

[2.03-2.08]

e|-----5-3-2~--3-2-0---------------------------------------------------------|
B|-------------------3--2tr3-2------------3~~--------------------------------|
G|------------------------------4-2-0-2/4------------------------------------|
D|-0~------------------------------------------------------------------------|
A|---------------------------------------------------------------------------|
E|---------------------------------------------------------------------------|

[2.09-2.13]

e|-----5------0--------------------------------------------------------------|
B|-5/7---7/5-----3h5-2-3p2-------2-3-----------------------------------------|
G|--------------------------2-4----------------------------------------------|
D|---------------------------------------------------------------------------|
A|---------------------------------------------------------------------------|
E|---------------------------------------------------------------------------|

[2.13-2.18]

e|-----5---2-5/7--5-2-5-3-2-3-2h3--0-2---------------------------------------|
B|-5-7---------------------------------5-3h5---------------------------------|
G|---------------------------------------------------------------------------|
D|---------------------------------------------------------------------------|
A|---------------------------------------------------------------------------|
E|---------------------------------------------------------------------------|

[2.18-2.26]

e|---------------------------------------------------------------------------|
B|-3--2-3-2--------------------------------2--3--5---------------------------|
G|----------4-2~~--2/4--2-2~~-3--4~~----4------------------------------------|
D|---------------------------------------------------------------------------|
A|---------------------------------------------------------------------------|
E|---------------------------------------------------------------------------|

[2.26-2.29]

e|---------------------------------------------------------------------------|
B|-5/7~~---7(7\5)--5\(3)--3-5-2~---2-2-5/7--5--------------------------------|
G|---------------------------------------------------------------------------|
D|---------------------------------------------------------------------------|
A|---------------------------------------------------------------------------|
E|---------------------------------------------------------------------------|


[2.30-2.38]

e|------------------------------------5-3-2-3--------------------------------|
B|--3-2-3~--2-(2)--------2-3-5--5/7------------------------------------------|
G|----------------4~---4-----------------------------------------------------|
D|---------------------------------------------------------------------------|
A|---------------------------------------------------------------------------|
E|---------------------------------------------------------------------------|

[2.38-2.44]

e|--2~-----------------------------------------------------------------------|
B|--------7h8p7-5-7-5-3-2-5-3-2-3-2~---2/3\2--------2---3--------------------|
G|-----------------------------------------------4---------------------------|
D|---------------------------------------------------------------------------|
A|---------------------------------------------------------------------------|
E|---------------------------------------------------------------------------|


Outro (Chords)

[2.44-2.53]
Dmaj, Amaj, Bmin, Amaj, Gmaj, Dmaj, Amaj, Amaj, Amaj*

[2.53-2.58]
Dmaj, Amaj, Bmin, Amaj,

[2.58-3.03]
Gmaj, Gmaj, Amaj, Amaj




************************************

| /   slide up
| \   slide down
| h   hammer-on
| p   pull-off
| ~   vibrato
| +   harmonic
| x   Mute note
| b   Bend
| pb  Pre-bend
| br  Bend release
| pbr Pre-bend release
| brb Bend release bend

************************************
Добавлено: 24.11.2013
Другие материалы по этой песне:
  • Аккорды и текст

Страница создана 24.11.2013
http://primanota.ru/filthy-thieving-bastards/bad-afternoon-sun-chords.htm
Привет, Гость.
Предлагаем пройти революционный курс по гитаре.
Подарок от PrimaNota.Ru, забирай!