PrimaNota.ru - самый крупный в мире бесплатный архив песенных текстов, аккордов, табулатур и нот


Filter - You Walk Away - текст песни, таба, видео

Регистрация Запомнить меня
Войти через:  Facebook Google Twitter Vk Yandex Mail.ru

Filter - You Walk Away - текст песни, таба, видео

Печатать
Просмотров: 119
Авторы музыки: Geno Lenardo, Richard Patrick

song: you walk away
band: filter

tabbed by: noteblitz
email: noteblitz@yahoo.com

tuning: whole step down, then drop to C
	so we have C G C F A D

song structure:		legend:
intro 1			pm = palm mute
intro 2			\  = slide forward
verse			b  = bend
pre-chorus              r  = release
chorus                  p  = pull off
verse                   ~  = vibrato
pre-chorus
chorus			NOTE: only showing 4 strings,
"silent part"		           C G C and F
"headbang part"
pre-chorus
chorus

I. intro 1
(guitar 1) pm
                  _repeat6x__
                 l           l
 ---------------------------------------------------|
 ---------------------------------------------------|
 --1-3-3---1-3---1-3-1-3---1-3----------------------|
 --1-3-3---1-3---1-3-1-3---1-3----------------------|
                 .     .
(guitar 2) 0:09  .     .
in synch with G1 .     .              0:14
notice alignment .     .              snare
 -------------------------------------xx-|
 -------------------------------------xx-|
 ----------------1-3-1-3----------1-3-xx-|
 ----------------1-3-1-3----------1-3-xx-|


II. intro 2
   0:16
 ------------------------------------------|
 ------------------------------------------|
 --1-3---1-3-1--\6-------------------------|
 --1-3---1-3-1--\6-------------------------|


III. verse
           ___part____
   0:28	  l  repeats  l	  0:39
 -----------------------------------------|
 -----------------------------------------|
 --1-3-3--1-3---1-3-1-3---1-3-1--\6-------|
 --1-3-3--1-3---1-3-1-3---1-3-1--\6-------|


   0:40
 -----------------------------------------|
 -----------------------------------------|
 --1-3---1-3-1--\6------------------------|
 --1-3---1-3-1--\6------------------------|


IV. pre-chorus
   0:52                0:56 (pm)
 ----------------------------------------------------------|
 ----------------------------------------------------------|
 --5h6p5--5h6--0---------3-3-3-3-3-1-1-1-0-0-0-0-0-0-0-0---|
 --5h6p5--5h6--0---------3-3-3-3-3-1-1-1-0-0-0-0-0-0-0-0---|


V. chorus
   1:11
 -----------11--11-11-11-11-11-11--------------------------------|
 -----------10--10-10-10-10-10-10--------------------------------|
 --9b10r9---9---9--9--9--9--9--9---8-8--5-5--8-8--5-5--8p5-------|
 ---------0------------------------8-8--5-5--8-8--5-5--8p5-------|


 -----------11--11-11-11-11-11-11--------------------------------|
 -----------10--10-10-10-10-10-10--------------------------------|
 --9b10r9---9---9--9--9--9--9--9---8-8--5-5--8-8--5-5--8---------|
 ---------0------------------------8-8--5-5--8-8--5-5--8---------|


 		             at 1:34, chorus ends with
 ---------------------------------------------------------------|
 ---------------------------------------------------------------|
 ------------------------------------------------------8p5-0----|
 ------------------------------------------------------8p5-0----|

VI. verse
VII. pre-chorus
VIII. chorus

IX. "silent part"
   2:50 techie stuff..with delay
 ---------------------------------------------|
 ---------------------------------------------|
 --7--(7)--(7)--(7)--(7)--(7)--(7)--fades-----|
 ---------------------------------------------|
 ---------------------------------------------|
 ---------------------------------------------|


X. "headbang part"
(guitar 1)
 --------------------------------------------------|
 --------------------------------------------------|
 --12b13r12~~~----12b13r12~~~----12b13r12~~~-------|
 --------------------------------------------------|

(g2)
 --------------------------------------------------|
 --------------------------------------------------|
 --------------------------------------------------|
 -------------0-0------------0-0-------------------|


 --------------------------------------------------|
 --------------------------------------------------|
 --0-0---0-0-0-0---0-0---0-0-0-0---5h6---0-0-0-0---|
 --0-0---0-0-0-0---0-0---0-0-0-0---5h6---0-0-0-0---|


 --------------------------------------------------|
 --------------------------------------------------|
 --0-0---0-0-0-0---5h6---0-0-0-0---0-0---0-0-0-0---|
 --0-0---0-0-0-0---5h6---0-0-0-0---0-0---0-0-0-0---|


 --------------------------------------------------|
 --------------------------------------------------|
 --5h6---0-0-0-0---0-0---short-----0-0-0-0---------|
 --5h6---0-0-0-0---0-0---pause-----0-0-0-0---------|


XI. pre-chorus
XII. chorus
Добавлено: 20.05.2012
Другие материалы по этой песне:
  • Аккорды и текст

Страница создана 01.04.2012
http://primanota.ru/filter/you-walk-away-chords.htm
Привет, Гость.
Предлагаем пройти революционный курс по гитаре.
Подарок от PrimaNota.Ru, забирай!