PrimaNota.ru - самый крупный в мире бесплатный архив песенных текстов, аккордов, табулатур и нот


Filous - Our Demons Remix - таба, видео

Регистрация Запомнить меня
Войти через:  Facebook Google Twitter Vk Yandex Mail.ru

Filous - Our Demons Remix - таба, видео

Печатать
Просмотров: 98
-------------------------------------------------------------------------------
                            THIS IS BY EAR!

      i've no idea if this is the right tabs but it sounds alike
-------------------------------------------------------------------------------
Tabbed by:Patrick Schliemann

Tuning:Standard? 
This is not in order.
It sounds really funny.
e|---------------------------------------------------------------------------|
B|---------------------------------------------------------------------------|
G|---------------------------------------------------------------------------|
D|-------10----------------8--------6~~~~------------------------------------|
A|-----8-----------------6----------4~~~~------------------------------------|
E|---------------------------------------------------------------------------|

e|---------------------------------------------------------------------------|
B|---------------------------------------------------------------------------|
G|------------------------------8/10-----------------------------------------|
D|-------10----------------8---------6~~~~-----6/8---------------------------|
A|-----8-----------------6---------------------------------------------------|
E|---------------------------------------------------------------------------|



e|---------------------------------------------------------------------------|
B|---------------------------------------------------------------------------|
G|----13----x-----12--13---10-------x----10--12--13---x---15-17-13-----------|
D|---------------------------------------------------------------------------|
A|----11----x-----10--11---8--------x----8---10--11---x---13-15-11-----------|
E|---------------------------------------------------------------------------|

| /   slide up
| \   slide down
| h   hammer-on
| p   pull-off
| ~   vibrato
| +   harmonic
| x   Mute note
| b   Bend
| pb  Pre-bend
| br  Bend release
| pbr Pre-bend release
| brb Bend release bend

************************************
Добавлено: 09.12.2015
Вам также может быть интересно:
Другие материалы по этой песне:
  • Аккорды и текст

Страница создана 09.12.2015
http://primanota.ru/filous/our-demons-remix-chords.htm
Привет, Гость.
Предлагаем пройти революционный курс по гитаре.
Подарок от PrimaNota.Ru, забирай!