PrimaNota.ru - самый крупный в мире бесплатный архив песенных текстов, аккордов, табулатур и нот


Filous - How Hard I Try - таба, видео

Регистрация Запомнить меня
Войти через:  Facebook Google Twitter Vk Yandex Mail.ru

Filous - How Hard I Try - таба, видео

Печатать
Просмотров: 153
Filous - How Hard I Try (feat. James Hersey)

Standard Tuning
No Capo

Chords:     Dm      C      F      Bb

           |-5-|  |-3-|  |-8 -|  |-6-|
           |-6-|  |-5-|  |-10-|  |-6-|
           |-7-|  |-5-|  |-10-|  |-7-|
           |-7-|  |-5-|  |-10-|  |-8-|
           |-5-|  |-3-|  |-8 -|  |-8-|
           |-x-|  |-x-|  |-x -|  |-6-|

Intro:

        e|-------------8-------------------|
        B|-10-----8-10----10-8h10-8h10--10-|
        G|---------------------------------|
        D|---------------------------------|
        A|---------------------------------|
        E|---------------------------------|

        e|------8--8-10-8------|
        B|-8-10-----------10-8-|
        G|---------------------|
        D|---------------------|
        A|---------------------|
        E|---------------------|

        e|-------------8-------------------|
        B|-10-----8-10----10-8h10-8h10--10-|
        G|---------------------------------|
        D|---------------------------------|
        A|---------------------------------|
        E|---------------------------------|

        e|------8--8--8--8-|
        B|-8-10------------|
        G|-----------------|
        D|-----------------|
        A|-----------------|
        E|-----------------|


Verse:     Dm    C       F      Bb

        e|-------------------------------|
        B|--6-----5----10----------------|
        G|-----7-----------10---7--7--9--|
        D|-------------------------------|
        A|--5-----3----8-----------------|
        E|----------------------6--------|


Chorus:    Dm     C           F       Bb

        e|----------------------------------------|
        B|--6-----5-------5---10------------------|
        G|-----7-----5------------10--7-----7--9--|
        D|--------------5----------------8--------|
        A|--5-----3-----------8-------------------|
        E|----------------------------6-----------|

        e|------------------------8---------------|
        B|--6-----5-------5---10------------------|
        G|-----7-----5----------------7-----7--9--|
        D|--------------5----------------8--------|
        A|--5-----3-----------8-------------------|
        E|----------------------------6-----------|


Bridge:      Dm     C        F       Bb

        e|---------------------8----------|
        B|-----6----5----------10---------|
        G|-----7----5----------10----7----|
        D|-----7----5----------------8----|
        A|--5-------3-------8--------8----|
        E|---------------------------6----|


Verse:     Dm    C       F      Bb

        e|-------------------------------|
        B|--6-----5----10----------------|
        G|-----7-----------10---7--7--9--|
        D|-------------------------------|
        A|--5-----3----8-----------------|
        E|----------------------6--------|


Chorus:    Dm     C           F       Bb

        e|----------------------------------------|
        B|--6-----5-------5---10------------------|
        G|-----7-----5------------10--7-----7--9--|
        D|--------------5----------------8--------|
        A|--5-----3-----------8-------------------|
        E|----------------------------6-----------|

        e|------------------------8---------------|
        B|--6-----5-------5---10------------------|
        G|-----7-----5----------------7-----7--9--|
        D|--------------5----------------8--------|
        A|--5-----3-----------8-------------------|
        E|----------------------------6-----------|


Outro:     Dm     C           F       Bb

        e|----------------------------------------|
        B|--6-----5-------5---10------------------|
        G|-----7-----5------------10--7-----7--9--|
        D|--------------5----------------8--------|
        A|--5-----3-----------8-------------------|
        E|----------------------------6-----------|

        e|------------------------8---------------|
        B|--6-----5-------5---10------------------|
        G|-----7-----5----------------7-----7--9--|
        D|--------------5----------------8--------|
        A|--5-----3-----------8-------------------|
        E|----------------------------6-----------|
Добавлено: 09.12.2015
Вам также может быть интересно:
Другие материалы по этой песне:
  • Аккорды и текст

Страница создана 09.12.2015
http://primanota.ru/filous/how-hard-i-try-chords.htm
Привет, Гость.
Предлагаем пройти революционный курс по гитаре.
Подарок от PrimaNota.Ru, забирай!