PrimaNota.ru - самый крупный в мире бесплатный архив песенных текстов, аккордов, табулатур и нот


Film - Schindler's List - таба, видео

Регистрация Запомнить меня
Войти через:  Facebook Google Twitter Vk Yandex Mail.ru

Film - Schindler's List - таба, видео

Печатать
Просмотров: 166
		   SCHINDLER'S LIST  (tema principale)
edit by QUIQUO (Marco)  /  http://quiquo.altervista.org
(su Quiquo tutte le diteggiature degli accordi, la lavagna di Archimede per
cambiare la tonalità, separare il testo dagli accordi e scegliere il layout
di stampa)
______________________________________________
per ascoltare l'esecuzione di questa TAB clicca qui:
http://quiquotab.altervista.org/schindlerslist.zip
______________________________________________


TAB verso:

       [LAm]              [LAmb6][LAm]     [FA6]       [DO]   [SOL/SI]
e------------|--0-----0-----1--0--------|--------------0-----------|
B------------|--1-----1-----------1-----|--1-----1--3--------------|
G------------|-----2-----2--------2-----|-----------------0-----0--|
D-------2----|-----------------------2--|-----0--------------------|
A------------|--0-----------------0-----|--------------3-----2-----|
E------------|--------------------------|--1-----------------------|

  [LAm]     [LAm7][LAmb6]  [SOL7]       [DO4][DO]     [REm/FA]   [MI]
--0-----0-----3--1--0-----|--------------1--0--------|--------------0-----------|
--1-----1-----1--1-----3--|--------0--3--1--1--3--1--|--3-----3--------3--1--3--|
-----2-----2--------------|--0-----------------------|--2-----2-----------------|
--------------------------|-----3--------------------|-----3-----3--------------|
--0-----------------------|--------------3-----------|--------------------------|
--------------------------|--3-----------------------|--------------0-----------|

 [LAm]                    [REm/FA]    [MI]           [FA]   [MI]
--0---------------------|--------------0-----------|--------------------|
--1---------------------|--3-----3--------3--1--0--|-----------0--------|
-------2-----0-----2----|--2-----2-----------------|--2--------1--------|
----------2-------------|-----3-----3--------------|--3--------2--------|
--0---------------------|--------------------------|--3--------2--------|
------------------------|--------------0-----------|--1--------0--------|

 [REm7]       [MI]         [LAm]
--------------0-----------|-----------5---------||
--1-----1--------3--1--0--|-----------5---------||
--2-----2-----------------|--2--------5---------||
-----0-----0--------------|--2--------7---------||
--------------------------|--0------------------||
--------------0-----------|---------------------||

*****************
[LAmb6]=x02211
[FA6]=1x0x1x
[SOL7]=3x30xx
[REm/FA]=xx323x
	     
Добавлено: 24.09.2013
Другие материалы по этой песне:
  • Аккорды и текст

Страница создана 24.09.2013
http://primanota.ru/film/schindlers-list-chords.htm
Привет, Гость.
Предлагаем пройти революционный курс по гитаре.
Подарок от PrimaNota.Ru, забирай!