PrimaNota.ru - самый крупный в мире бесплатный архив песенных текстов, аккордов, табулатур и нот


Film - Nuovo Cinema Paradiso - таба, видео

Регистрация Запомнить меня
Войти через:  Facebook Google Twitter Vk Yandex Mail.ru

Film - Nuovo Cinema Paradiso - таба, видео

Печатать
Просмотров: 540
		   NUOVO CINEMA PARADISO (Love Theme)
edit by QUIQUO (Marco)  /  http://quiquo.altervista.org
(su Quiquo tutte le diteggiature degli accordi, la lavagna di Archimede per
cambiare la tonalità, separare il testo dagli accordi e scegliere il layout
di stampa)

Scritto da Andrea Morricone (figlio del più famoso Ennio) dalla colonna
sonora del film Nuovo Cinema Paradiso del 1988. Brano eseguito da Pat
Metheny e Charlie Haden dal CD Beyond The Missouri Sky del 1997.
Lo si può ascoltare in questi giorni in TV come sottofondo allo spot della
Chiesa Cattolica.

ascolta la DEMO:
http://vervemusicgroup.com/product.aspx?ob=disc&src=art&pid=10432
clicca su: TRACK ---- 11. Cinema Paradiso (Love Theme) -----


questo sotto è un mio arrangiamento per chitarra solista!
______________________________________________
per ascoltare l'esecuzione di questa TAB clicca qui:
http://quiquotab.altervista.org/nuovocinema.zip
______________________________________________


  [MIm]     [LAm7]         [RE]     [SOL4][SOL]    [SOL/FA#]    [MIm]
e|------------------------|------------------------|--------------------------|
B|------------------------|------------------------|--------------------------|
G|------------------------|------------------------|--------------2--0-----0--|
D|--5------------5--4--2--|--4--7------------------|--------0--4--------4-----|
A|--2------2--3-----------|--5-----5---3-3----2----|-----2--------------------|
E|--0---------5-----------|--------------3---------|--2-----------0-----------|
    m      I  I  m  M  I     I  m  M   M M    M       I  M     m  M     m
    I         A              M           A

 [MIm7]    [DO]           [LAm]                                     [MIm]
------------------------|------------------0-----|------------------------|
--0------0-----------3--|--1------------------3--|--3--1------------------|
------------------------|---------------2--------|--2-----4--2--0------0--|
--0---------2--1--2-----|---------------2--------|--2-----4---------------|
------------3-----2-----|--0---------------------|--0-----2---------------|
------------------------|-------3----2-----0-----|--------------0---------|
            M  I  A  m     I    A    P  A     m     m  I  m  I
            A     M                     M           A     A
                                                    M     I
 [MIm7]     [DO7+]     [SOLdim]    [SI7]
-----------------------|--------------------------|-----------|
-----------------------|--------------------------|-----------|
--2--0--------0--------|--3-----------------------|-----------|
--0-----4--0--2--------|--5-----4--5--4-----2--4--|---1-------|
--------------3--------|--4-----------2-----------|---2-------|
-----------------------|--------------------------|-----------|
  M     m     M           I     M  M  M     I  M      I
              A           A           I               M
                          M


2° Verso: (sale di un'ottava)


  [MIm]     [LAm7]         [RE]     [SOL4][SOL]    [SOL/FA#]    [MIm]
e---3------------3--2--0--|--2--5------------------|-----------2--5--3--2--3--|
B---0------0--1-----------|--------3---------------|-----0--3-----0-----------|
G---0---------0-----------|------------5-5----4----|--------------------------|
D-------------------------|--0-----------0---------|--------------------------|
A-------------0-----------|------------------------|--------------------------|
E---0---------------------|--------------3---------|--2-----------0-----------|
    m         I  m  M        I  m  I   m m    A       P     A  M  m  M  I  I
                                         P

 [MIm7]    [DO]           [LAm]                                     [MIm]
--7------7-----------10--|--8----------------12--10--|--10--8---------3------3--|
--0----------------------|--10-----------10----------|--10-----12-10--0---------|
------------9--8--9------|--9------------------------|--9-------------0---------|
--0----------------------|---------------------------|--------------------------|
-------------------------|--0---------0--------------|--------------------------|
------------8-----7------|---------------------------|----------------0---------|
  I      I  A  M  A  m      I            A   m    m     m   I  m  A   I
I
            P     P         A                           A
                            M                           M

 [MIm7]     [DO7+]     [SOLdim]    [SI7]
--5--3--2-----0--------|-------2--3--2--------|-------------|
--------0--3--0--------|-------------0--------|--1----0-----|
--------------0--------|--3----------2--------|--2----------|
--0-----0--------------|--5-------------------|--1----------|
--------------3--------|--4----------2--------|-------------|
-----------------------|----------------------|-------------|
  A  I  I  A  M           I    m  m  m           M
                          A          A           A
                          M          M           m




***********************
	     
Добавлено: 20.07.2013
Другие материалы по этой песне:
  • Аккорды и текст

Страница создана 20.07.2013
http://primanota.ru/film/nuovo-cinema-paradiso-chords.htm
Привет, Гость.
Предлагаем пройти революционный курс по гитаре.
Подарок от PrimaNota.Ru, забирай!