PrimaNota.ru - самый крупный в мире бесплатный архив песенных текстов, аккордов, табулатур и нот


Film - Ciclone.2 - таба, видео

Регистрация Запомнить меня
Войти через:  Facebook Google Twitter Vk Yandex Mail.ru

Film - Ciclone.2 - таба, видео

Печатать
Просмотров: 90
		   --------

2 the night - Ottmar liebert



Standard tuning


Verse:

e|----5--7--8--7--5--------------5--7--8--7--5--------------
B|-------------------5---5---5-------------------6---6---6--
G|----------------------------------------------------------
D|----------------------------------------------------------
A|----------------------------------------------------------
E|----------------------------------------------------------


--5--7--8--7--5--10~~~10~~~10~---5--7--8--7--6-------x--0---
-------------------------------------------------5---x--0---
-----------------------------------------------------x--1---
--------------------------------------------------------2---
--------------------------------------------------------2---
--------------------------------------------------------0---


----5--7--8--7--5--------------5--7--8--7--5----------------
-------------------5---5---5-------------------6---6---6----
------------------------------------------------------------
------------------------------------------------------------
------------------------------------------------------------
------------------------------------------------------------


-5--7--8--7--5--10~~10~~10~-5-7-8-5-7-8-5-7-/12--12--12-12-|
-----------------------------------------------------------|
-----------------------------------------------------------|
-----------------------------------------------------------|
-----------------------------------------------------------|
-----------------------------------------------------------|


Chorus:

e|----------------------------------------------------------
B|---------5-7-8-7--5----------------5-7--8--8--8--8--------
G|---5---7-------------7--5-----5--7------------------5--7--
D|----------------------------------------------------------
A|----------------------------------------------------------
E|----------------------------------------------------------


-----------------------------------5------------------------
-----------------5-7--8--8--8--8-----8-7--5--8--7--7-7--7--7
8--7--5--7--5--7--------------------------------------------
------------------------------------------------------------
------------------------------------------------------------
------------------------------------------------------------

------------------------------------------------------------|
--5---------7--7-----7--7--5---5>7>5------------------------|
----7-5--7--------7------------------------ Back to Verse --|
------------------------------------------------------------|
------------------------------------------------------------|
------------------------------------------------------------|


     
Добавлено: 27.07.2013
Другие материалы по этой песне:
  • Аккорды и текст

Страница создана 27.07.2013
http://primanota.ru/film/ciclone2-chords.htm
Привет, Гость.
Предлагаем пройти революционный курс по гитаре.
Подарок от PrimaNota.Ru, забирай!