PrimaNota.ru - самый крупный в мире бесплатный архив песенных текстов, аккордов, табулатур и нот


Film - Ciclone - таба, видео

Регистрация Запомнить меня
Войти через:  Facebook Google Twitter Vk Yandex Mail.ru

Film - Ciclone - таба, видео

Печатать
Просмотров: 135
Уроки эстрадного вокала в Санкт-Петербурге
		   --------

Il Ciclone

E||-5-7-8-7-5------5-7-8-7-5------5-7-8-7-5-10-10--7-8-10-8-7---
B||-----------5-5------------6-6------------------------------5-
G||-------------------------------------------------------------
D||-------------------------------------------------------------
A||-------------------------------------------------------------
E||-------------------------------------------------------------

E||-5-7-8-7-5--------5-7-8-7-5--------5-7-8-7-5-10-10-10-
B||-----------5-5-5------------6-6-6---------------------
G||------------------------------------------------------
D||------------------------------------------------------
A||------------------------------------------------------
E||------------------------------------------------------

E||-7-8-10-8-7----7-8-10-8----12-12-12-
B||------------10----------10----------
G||------------------------------------
D||------------------------------------
A||------------------------------------
E||------------------------------------

E||-------------------------------------------------------------------------------------
B||-------5-6-8-6-5---6-5---------------------------5-6-8-6-6-6-8-6-5---5---------------
G||-4-5-7-----------5------4-5-7-5--4--4-5-7-5-4-5--------------------7----4-5-7-5-4--5-
D||-------------------------------------------------------------------------------------
A||-------------------------------------------------------------------------------------
E||-------------------------------------------------------------------------------------

E||------------------------------------------------------------------------
B||-----5-6-6-6-6--8-6-5---6--5-6-8-6-5---6-5---5--------------------------
G||-5-7------------------7--------------7-----7---7-5-4-7-5-4---5-4--7-5-4-
D||-----------------------------------------------------------7------------
A||------------------------------------------------------------------------
E||------------------------------------------------------------------------


     
Добавлено: 17.06.2013
Другие материалы по этой песне:
  • Аккорды и текст

Страница создана 17.06.2013
http://primanota.ru/film/ciclone-chords.htm
Привет, Гость.
Предлагаем пройти революционный курс по гитаре.
Подарок от PrimaNota.Ru, забирай!