PrimaNota.ru - самый крупный в мире бесплатный архив песенных текстов, аккордов, табулатур и нот


Fightstar - I Am The Message - текст песни, таба, видео

Регистрация Запомнить меня
Войти через:  Facebook Google Twitter Vk Yandex Mail.ru

Fightstar - I Am The Message - текст песни, таба, видео

Печатать
Просмотров: 153
Авторы: Dan Haigh, Alex Westaway, Omar Abidi, Charlie Simpson

Band: Fightstar
Song: I Am The Message
Album: One Day Son, This Will All Be Yours
Half a step down, drop Db

Intro

Gtr I
Eb------------------------------------------------------------------|
Bb------------------------------------------------------------------|
Gb------------------------------------------------------------------|
Db---5---5---5---5---3---2---2---0---2------------------------------| x4
Ab-3---3---3---3---3---3---3---3---3-----3---3---3---3---3---3---3--|
Db-------------------------------------3---3---3---3---3---3---3----|

Gtr II
Eb----------------------|
Bb----------------------|
Gb-5/9---5/9---5/7--9\5-|
Db-X-X---X-X---X-X--X-X-| x2
Ab-3/7---3/7---3/5--7\3-|
Db----------------------|

Verse 1
Gtr I
Eb-----------------------------------------------------------------|
Bb-----------------------------------------------------------------|
Gb-----------------------------------------------------------------|
Db-------------------------------5-5-------------------------------|
Ab-3-3-3-3-3-3-3-3-5-5-5-7-7-7-7-----7-3-3-3-3-3-3-0-0-0-2-2-2-2-2-|
Db-----------------------------------------------------------------|


Eb-----------------------------------------------------------------|
Bb-----------------------------------------------------------------|
Gb-----------------------------------------------------------------|
Db-------------------------------5-5---7-7-7-7-7-7-----------------|
Ab-3-3-3-3-3-3-3-3-5-5-5-7-7-7-7-----7-------------0-0-0-2-2-2-2-2-|
Db-----------------------------------------------------------------|

Gtr II
Eb------------------------------------------------------------------|
Bb------------------------------------------------------------------|
Gb------------------------------------------------------------------|
Db---5---5---5---5---3---2---2---0---2------------------------------|
Ab-3---3---3---3---3---3---3---3---3-----3---3---3---3---3---3---3--|
Db-------------------------------------3---3---3---3---3---3---3----|

Pre chorus 1(Halo, you mean nothing to me...)

Gtr I
Eb-----------------------------------------------------------------|
Bb-----------------------------------------------------------------|
Gb-----------------------------------------------------------------|
Db-------------------------------5-5-3-----------------------------| x2
Ab-3-3-3-3-3-3-3-3-5-5-5-7-7-7-7-------0-0-0-0-0-0-3-3-3-2-2-2-2-2-|
Db-----------------------------------------------------------------|

Chorus 1

Both gtrs I and II
Eb-------------------------------------------------------------------------|
Bb-------------------------------------------------------------------------|
Gb-------------------------------------------------------------------------|
Db-10-10-10-10-10-10-10-10-3-3-3-3-3-3-3-3-5-5-5-5-5-5-5-5-3-3-3-3-3-3-3-3-|
Ab-10-10-10-10-10-10-10-10-3-3-3-3-3-3-3-3-5-5-5-5-5-5-5-5-3-3-3-3-3-3-3-3-|
Db-10-10-10-10-10-10-10-10-3-3-3-3-3-3-3-3-5-5-5-5-5-5-5-5-3-3-3-3-3-3-3-3-|

Eb--------------------------------------------------------------------------|
Bb--------------------------------------------------------------------------|
Gb--------------------------------------------------------------------------|
Db-10-10-10-10-10-10-10-10-3-3-3-3-3-3-3-3-5-5-5-5-5-5-5-5-3----------------|let
Ab-10-10-10-10-10-10-10-10-3-3-3-3-3-3-3-3-5-5-5-5-5-5-5-5-3----------------|it
Db-10-10-10-10-10-10-10-10-3-3-3-3-3-3-3-3-5-5-5-5-5-5-5-5-3----------------|ring

Instrumental

Gtr I
Eb------------------------------------------------------------------|
Bb------------------------------------------------------------------|
Gb------------------------------------------------------------------|
Db---5---5---5---5---3---2---2---0---2------------------------------| x2
Ab-3---3---3---3---3---3---3---3---3-----3---3---3---3---3---3---3--|
Db-------------------------------------3---3---3---3---3---3---3----|

Gtr II
Eb----------------------|
Bb----------------------|
Gb-5/9---5/9---5/7--9\5-|
Db-x-x---x-x---x-x--x-x-| x2
Ab-3/7---3/7---3/5--7\3-|
Db----------------------|

Verse 2
Gtr I
Eb-----------------------------------------------------------------|
Bb-----------------------------------------------------------------|
Gb-----------------------------------------------------------------|
Db-------------------------------5-5-------------------------------|
Ab-3-3-3-3-3-3-3-3-5-5-5-7-7-7-7-----7-3-3-3-3-3-3-0-0-0-2-2-2-2-2-|
Db-----------------------------------------------------------------|


Eb-----------------------------------------------------------------|
Bb-----------------------------------------------------------------|
Gb-----------------------------------------------------------------|
Db-------------------------------5-5---7-7-7-7-7-7-----------------|
Ab-3-3-3-3-3-3-3-3-5-5-5-7-7-7-7-----7-------------0-0-0-2-2-2-2-2-|
Db-----------------------------------------------------------------|

Gtr II
Eb------------------------------------------------------------------|
Bb------------------------------------------------------------------|
Gb------------------------------------------------------------------|
Db---5---5---5---5---3---2---2---0---2------------------------------|
Ab-3---3---3---3---3---3---3---3---3-----3---3---3---3---3---3---3--|
Db-------------------------------------3---3---3---3---3---3---3----|

Pre chorus 2

Gtr I
Eb-----------------------------------------------------------------|
Bb-----------------------------------------------------------------|
Gb-----------------------------------------------------------------|
Db-------------------------------5-5-3-----------------------------| x2
Ab-3-3-3-3-3-3-3-3-5-5-5-7-7-7-7-------0-0-0-0-0-0-3-3-3-2-2-2-2-2-|
Db-----------------------------------------------------------------|

Chorus 2

Both gtrs I and II
Eb-------------------------------------------------------------------------|
Bb-------------------------------------------------------------------------|
Gb-------------------------------------------------------------------------|
Db-10-10-10-10-10-10-10-10-3-3-3-3-3-3-3-3-5-5-5-5-5-5-5-5-3-3-3-3-3-3-3-3-|
Ab-10-10-10-10-10-10-10-10-3-3-3-3-3-3-3-3-5-5-5-5-5-5-5-5-3-3-3-3-3-3-3-3-|
Db-10-10-10-10-10-10-10-10-3-3-3-3-3-3-3-3-5-5-5-5-5-5-5-5-3-3-3-3-3-3-3-3-|

Eb-------------------------------------------------------------------------|
Bb-------------------------------------------------------------------------|
Gb-------------------------------------------------------------------------|
Db-10-10-10-10-10-10-10-10-3-3-3-3-3-3-3-3-5-5-5-5-5-5-5-5-3--3--3--3--3-3-|
Ab-10-10-10-10-10-10-10-10-3-3-3-3-3-3-3-3-5-5-5-5-5-5-5-5-3--3--3--3--3-3-|
Db-10-10-10-10-10-10-10-10-3-3-3-3-3-3-3-3-5-5-5-5-5-5-5-5-3--3--3--3--3-3-|

Bridge

Gtr I
Eb---------------------------------------|
Bb---------------------------------------|
Gb---------------------------------------|
Db---------------------------------------|
Ab-5--5--5---5/7--7--7--3--3--3--3--3--3-|
Db-5--5--5---5/7--7--7--3--3--3--3--3--3-|

Eb------------------------------------------|
Bb------------------------------------------|
Gb------------------------------------------|
Db------------------------------------------|
Ab-5--5--5---5/7--7--7--10--10--10--3--3--3-|
Db-5--5--5---5/7--7--7--10--10--10--3--3--3-|

Eb-------------------------------------------------------------|
Bb-------------------------------------------------------------|
Gb-------------------------------------------------------------|
Db-------------------------------------------------------------|
Ab-5--5--5---5/7--7--7--3--3--3--3--3--3-----------------------|
Db-5--5--5---5/7--7--7--3--3--3--3--3--3-3-3-3-3-3-3-3-3-3-3-3-|

Chorus 3

Gtr I
Eb------------------11-----12------12------14-|
Bb-12---12--14--12-----12------12------12-----|
Gb--------------------------------------------|
Db--------------------------------------------| X2
Ab--------------------------------------------|
Db--------------------------------------------|

Eb------------------11-----12------14---------|
Bb-12---12--14--12-----12------12-------------|
Gb--------------------------------------------|
Db--------------------------------------------| X2
Ab--------------------------------------------|
Db--------------------------------------------|

Gtr II
Eb-------------------------------------------------------------------------|
Bb-------------------------------------------------------------------------|
Gb-------------------------------------------------------------------------|
Db-10-10-10-10-10-10-10-10-3-3-3-3-3-3-3-3-5-5-5-5-5-5-5-5-3-3-3-3-3-3-3-3-|
Ab-10-10-10-10-10-10-10-10-3-3-3-3-3-3-3-3-5-5-5-5-5-5-5-5-3-3-3-3-3-3-3-3-|
Db-10-10-10-10-10-10-10-10-3-3-3-3-3-3-3-3-5-5-5-5-5-5-5-5-3-3-3-3-3-3-3-3-|

Eb-------------------------------------------------------------------------|
Bb-------------------------------------------------------------------------|
Gb-------------------------------------------------------------------------|
Db-10-10-10-10-10-10-10-10-3-3-3-3-3-3-3-3-5-5-5-5-5-5-5-5-3-3-3-3-3-3-3-3-|
Ab-10-10-10-10-10-10-10-10-3-3-3-3-3-3-3-3-5-5-5-5-5-5-5-5-3-3-3-3-3-3-3-3-|
Db-10-10-10-10-10-10-10-10-3-3-3-3-3-3-3-3-5-5-5-5-5-5-5-5-3-3-3-3-3-3-3-3-|

Eb---------------------------------------------------------------------|
Bb---------------------------------------------------------------------|
Gb---------------------------------------------------------------------|
Db-5-5-5-5-5-5-5-5-7-7-7-7-7-7-7-7-10-10-3-3-3-3-3-3-3-3-3-3-3-3-3-3-3-|
Ab-5-5-5-5-5-5-5-5-7-7-7-7-7-7-7-7-10-10-3-3-3-3-3-3-3-3-3-3-3-3-3-3-3-|
Db-5-5-5-5-5-5-5-5-7-7-7-7-7-7-7-7-10-10-3-3-3-3-3-3-3-3-3-3-3-3-3-3-3-|

Eb----------------------------------------------------|
Bb----------------------------------------------------|
Gb-7-7-7-7-7-7-7-7-9-9-9-9-9-9-9-9-5/7--9\5---LET-----|
Db-x-x-x-x-x-x-x-x-x-x-x-x-x-x-x-x-x-x--x-x---IT------|
Ab-5-5-5-5-5-5-5-5-7-7-7-7-7-7-7-7-3/5--7\3---RING----|
Db----------------------------------------------------|
Добавлено: 16.07.2012
Другие материалы по этой песне:

Страница создана 03.04.2012
http://primanota.ru/fightstar/i-am-the-message-chords.htm
Привет, Гость.
Предлагаем пройти революционный курс по гитаре.
Подарок от PrimaNota.Ru, забирай!