PrimaNota.ru - самый крупный в мире бесплатный архив песенных текстов, аккордов, табулатур и нот


Fightstar - Deathcar - текст песни, таба, бас-таба, видео

Регистрация Запомнить меня
Войти через:  Facebook Google Twitter Vk Yandex Mail.ru

Fightstar - Deathcar - текст песни, таба, бас-таба, видео

Печатать
Просмотров: 112
Авторы: Dan Haigh, Alex Westaway, Omar Abidi, Charlie Simpson

-----------------------------------------------------------------------------
			     Deathcar - Fightstar
-----------------------------------------------------------------------------
Tabbed by: Matt Norton
Email: matthew_norton@hotmail.com

Tuning: Drop C


Intro
'Drive, You're not going to be prepared for this'
|--------------------------------------------------------------------------|
|--------------------------------------------------------------------------|
|--------------------------------------------------------------------------|
|--6-5-3-0-6-0-0-1-00--8---8---8-------------------------------------------|
|--6-5-3-0-6-0-0-1-00--6---6---6--010--------------------------------------|
|--6-5-3-0-6-0-0-1-00--6---6---6--010--------------------------------------|

|--------------------------------------------------------------------------|
|--------------------------------------------------------------------------|
|--------------------------------------------------------------------------|
|--6-5-3-0-6-0-0-1-00--8---8---8------3------------------------------------|
|--6-5-3-0-6-0-0-1-00--6---6---6--010-3------------------------------------|
|--6-5-3-0-6-0-0-1-00--6---6---6--010-3------------------------------------|

|--------------------------------------------------------------------------|
|--------------------------------------------------------------------------|
|--------------------------------------------------------------------------|
|--6-5-3-0-6-0-0-1-00--8---8---8-------------------------------------------|
|--6-5-3-0-6-0-0-1-00--6---6---6--010--------------------------------------|
|--6-5-3-0-6-0-0-1-00--6---6---6--010--------------------------------------|


|--------------------------------------------------------------------------|
|--------------------------------------------------------------------------|
|--------------------------------------------------------------------------|
|--0--1--0--2--0--------------8--8--8--------------------------------------|
|--0--1--0--2--0-----010--0---6--6--6--------X2----------3-----------------|
|--0--1--0--2--0-----010--0---6--6--6----------------000-3-----------------|
         x     x     xxx                             xxx


Pre chorus
'follow me outside and I'll..'
|------------------------------------------------------|-------------------|
|------------------------------------------------------|-------------------|
|------------12-11----------------10-9-----------------|-------------------|
|--9-11-12-9--------X4---7-9-10-7-------X4-------------|--X2---------------|
|------------------------------------------------------|-------------------|
|------------------------------------------------------|-------------------|


Chorus
Guitar 1 (chords, root notes)
|--------------------------------------------------------------------------|
|--------------------------------------------------------------------------|
|--------------------------------------------------------------------------|
|--0c----7c----------10c-----5c--------------------------------------------|
|--0c----7c----------10c-----5c--------------------------------------------|
|--0c----7c----------10c-----5c--------------------------------------------|

Guitar 2
|--------------------------------------------------------------------------|
|--------------------------------------------------------------------------|
|--11-----14--16--18--9------12-----11---14--16-18-19---16-----------------|
|--x------x---x---x---x------x------x----x---x--x--x----x------------------|
|--9------12--14--16--7------10-----9----12--14-16-17---14-----------------|
|--------------------------------------------------------------------------|

Guitar 3
|--10---------12-------9-------10------12----------------------------------|
|----10---X4----10--X4--10--X4---10--X2--10--X2----------------------------|
|------7----------7-------7--------7-------7-------------------------------|
|--------------------------------------------------------------------------|
|--------------------------------------------------------------------------|
|--------------------------------------------------------------------------|

|--10---------12-------9-------10------------------------------------------|
|----10---X4----10--X4--10--X4---10--X4------------------------------------|
|------7----------7-------7--------7---------------------------------------|
|--------------------------------------------------------------------------|
|--------------------------------------------------------------------------|
|--------------------------------------------------------------------------|

|--10---------12-------9-------10------12----------------------------------|
|----10---X4----10--X4--10--X4---10--X2--10--X2----------------------------|
|------7----------7-------7--------7-------7-------------------------------|
|--------------------------------------------------------------------------|
|--------------------------------------------------------------------------|
|--------------------------------------------------------------------------|

|--10--------9---------14---------17---------------------------------------|
|----10--X4---10--X4-----12---X4----15---X4--------------------------------|
|------7--------7----------12---------14-----------------------------------|
|--------------------------------------------------------------------------|
|--------------------------------------------------------------------------|
|--------------------------------------------------------------------------|


Verse
|--------------------------------------------------------------------------|
|--------------------------------------------------------------------------|
|--------------------------------------------------------------------------|
|--6-5-3-0-6-0-0-1-00--8---8---8------3------------------------------------|
|--6-5-3-0-6-0-0-1-00--6---6---6--010-3------------------------------------|
|--6-5-3-0-6-0-0-1-00--6---6---6--010-3------------------------------------|

'Lets close the door and start the fun'
|--------------------------------------------------------------------------|
|--------------------------------------------------------------------------|
|--------------------------------------------------------------------------|
|--6-5-3-0-6-0-0-1-00--8---8---8-------------------------------------------|
|--6-5-3-0-6-0-0-1-00--6---6---6--010--------------------------------------|
|--6-5-3-0-6-0-0-1-00--6---6---6--010--------------------------------------|

|--------------------------------------------------------------------------|
|--------------------------------------------------------------------------|
|--------------------------------------------------------------------------|
|--6-5-3-0-6-0-0-1-00--8---8---8------3------------------------------------|
|--6-5-3-0-6-0-0-1-00--6---6---6--010-3------------------------------------|
|--6-5-3-0-6-0-0-1-00--6---6---6--010-3------------------------------------|

|--------------------------------------------------------------------------|
|--------------------------------------------------------------------------|
|--------------------------------------------------------------------------|
|--6-5-3-0-6-0-0-1-00--8---8---8---------------'You make me fucking sick'--|
|--6-5-3-0-6-0-0-1-00--6---6---6--010.-------------------------------------|
|--6-5-3-0-6-0-0-1-00--6---6---6--010.-------------------------------------|

|--------------------------------------------------------------------------|
|--------------------------------------------------------------------------|
|--------------------------------------------------------------------------|
|--0--1--0--2--0--------------8--8--8--------------------------------------|
|--0--1--0--2--0-----010--0---6--6--6--------X2----------3-----------------|
|--0--1--0--2--0-----010--0---6--6--6----------------000-3-----------------|
         x     x     xxx                             xxx


Pre chorus
'swallow your last breath of air'
|------------------------------------------------------|-------------------|
|------------------------------------------------------|-------------------|
|------------12-11----------------10-9-----------------|-------------------|
|--9-11-12-9--------X4---7-9-10-7-------X4-------------|--X2---------------|
|------------------------------------------------------|-------------------|
|------------------------------------------------------|-------------------|


Chorus
Guitar 1 (chords, root notes)
|--------------------------------------------------------------------------|
|--------------------------------------------------------------------------|
|--------------------------------------------------------------------------|
|--0c----7c----------10c-----5c--------------------------------------------|
|--0c----7c----------10c-----5c--------------------------------------------|
|--0c----7c----------10c-----5c--------------------------------------------|

Guitar 2
|--------------------------------------------------------------------------|
|--------------------------------------------------------------------------|
|--11-----14--16--18--9------12-----11---14--16-18-19---16-----------------|
|--x------x---x---x---x------x------x----x---x--x--x----x------------------|
|--9------12--14--16--7------10-----9----12--14-16-17---14-----------------|
|--------------------------------------------------------------------------|

Guitar 3
|--10---------12-------9-------10------12----------------------------------|
|----10---X4----10--X4--10--X4---10--X2--10--X2----------------------------|
|------7----------7-------7--------7-------7-------------------------------|
|--------------------------------------------------------------------------|
|--------------------------------------------------------------------------|
|--------------------------------------------------------------------------|

|--10---------12-------9-------10------------------------------------------|
|----10---X4----10--X4--10--X4---10--X4------------------------------------|
|------7----------7-------7--------7---------------------------------------|
|--------------------------------------------------------------------------|
|--------------------------------------------------------------------------|
|--------------------------------------------------------------------------|

|--10---------12-------9-------10------12----------------------------------|
|----10---X4----10--X4--10--X4---10--X2--10--X2----------------------------|
|------7----------7-------7--------7-------7-------------------------------|
|--------------------------------------------------------------------------|
|--------------------------------------------------------------------------|
|--------------------------------------------------------------------------|

|--10--------9---------14---------17---------------------------------------|
|----10--X4---10--X4-----12---X4----15---X4--------------------------------|
|------7--------7----------12---------14-----------------------------------|
|--------------------------------------------------------------------------|
|--------------------------------------------------------------------------|
|--------------------------------------------------------------------------|

Bridge
|--------------------------------------------------------------------------|
|--------------------------------------------------------------------------|
|---------------------------------7----------------------------------------|
|--11-11---------11--11---12--2---7----------------------------------------|
|--9--9----------9---9----9---2---5--------X2------------------------------|
|--8--8---x-x-x--8---7----9---2---5----------------------------------------|

Chorus
Guitar 1 (chords, root notes) - First little bit clean
|--------------------------------------------------------------------------|
|--------------------------------------------------------------------------|
|--------------------------------------------------------------------------|
|--0c----7c----------10c-----5c--------------------------------------------|
|--0c----7c----------10c-----5c--------------------------------------------|
|--0c----7c----------10c-----5c--------------------------------------------|

Guitar 2
|--------------------------------------------------------------------------|
|--------------------------------------------------------------------------|
|--11-----14--16--18--9------12-----11---14--16-18-19---16-----------------|
|--x------x---x---x---x------x------x----x---x--x--x----x------------------|
|--9------12--14--16--7------10-----9----12--14-16-17---14-----------------|
|--------------------------------------------------------------------------|

Guitar 3
|--10---------12-------9-------10------12----------------------------------|
|----10---X4----10--X4--10--X4---10--X2--10--X2----------------------------|
|------7----------7-------7--------7-------7-------------------------------|
|--------------------------------------------------------------------------|
|--------------------------------------------------------------------------|
|--------------------------------------------------------------------------|

|--10---------12-------9-------10------------------------------------------|
|----10---X4----10--X4--10--X4---10--X4------------------------------------|
|------7----------7-------7--------7---------------------------------------|
|--------------------------------------------------------------------------|
|--------------------------------------------------------------------------|
|--------------------------------------------------------------------------|

|--10---------12-------9-------10------12----------------------------------|
|----10---X4----10--X4--10--X4---10--X2--10--X2----------------------------|
|------7----------7-------7--------7-------7-------------------------------|
|--------------------------------------------------------------------------|
|--------------------------------------------------------------------------|
|--------------------------------------------------------------------------|

|--10--------9---------14---------17---------------------------------------|
|----10--X4---10--X4-----12---X4----15---X4--------------------------------|
|------7--------7----------12---------14-----------------------------------|
|--------------------------------------------------------------------------|
|--------------------------------------------------------------------------|
|--------------------------------------------------------------------------|


Outro
|--------------------------------------------------------------------------|
|--------------------------------------------------------------------------|
|--------------------------------------------------------------------------|
|--0-0-0-3-2-0-0-----0-0-0-3-2-0--.----------------------------------------|
|--0-0-0-3-2-0-0-----0-0-0-3-2-0--.----------------------------------------|
|--0-0-0-3-2-0-0-----0-0-0-3-2-0--.----------------------------------------|
   x x x     x x     x x x
Добавлено: 08.07.2013
Другие материалы по этой песне:
  • Аккорды и текст

Страница создана 11.05.2012
http://primanota.ru/fightstar/deathcar-chords.htm
Привет, Гость.
Предлагаем пройти революционный курс по гитаре.
Подарок от PrimaNota.Ru, забирай!