PrimaNota.ru - самый крупный в мире бесплатный архив песенных текстов, аккордов, табулатур и нот


Fightstar - Build An Army - текст песни, таба, бас-таба, видео

Регистрация Запомнить меня
Войти через:  Facebook Google Twitter Vk Yandex Mail.ru

Fightstar - Build An Army - текст песни, таба, бас-таба, видео

Печатать
Просмотров: 96
Авторы: Dan Haigh, Alex Westaway, Omar Abidi, Charlie Simpson

FIGHTSTAR - BUILD AN ARMY
GRAND UNIFICATION

Tabbed by Matthew Watkin watkinmatthew@yahoo.ie

Ok I tabbed this for one guitar there's probably a few 
mistakes but it sounds good to me. Any coments or 
questions please feel free to email me

  Intro/Verse 1  
e|-------------------------------------|-------------------------------|
B|-------------------------------------|-------------------------------|
G|-------------------------------------|-------------------------------|
D|-----11---11-----12---12-----11---12-|-----7---7-----9---9-----7---9-| x3
A|-9-9----9----9-9----9----9-9----9----|-7-7---7---7-7---7---7-7---7---|
D|-9-9----9----9-9----9----9-9----9----|-7-7---7---7-7---7---7-7---7---|
  'We'll            hold            this            off            to  

e|-------------------------------------|------------------------|
B|-------------------------------------|------------------------|
G|-------------------------------------|------------------------|
D|-----11---11-----12---12-----11---12-|-----7---7-----9---9-7^-| 
A|-9-9----9----9-9----9----9-9----9----|-7-7---7---7-7---7------|
D|-9-9----9----9-9----9----9-9----9----|-7-7---7---7-7---7------|
                        build          these          machines'

  Chorus 1
e|-------------------------------------|---------------------------------|
B|-------------------------------------|---------------------------------|
G|-------------------------------------|---------------------------------|
D|-9-9-9-8-9-9-9-8-9-9-9-8-12-12-12-12-|-5-5-5-4-5-5-5-4-5-5-5-4-2-2-2-2-| x2
A|-9-9-9-8-9-9-9-8-9-9-9-8-12-12-12-12-|-5-5-5-4-5-5-5-4-5-5-5-4-2-2-2-2-|
D|-9-9-9-8-9-9-9-8-9-9-9-8-12-12-12-12-|-5-5-5-4-5-5-5-4-5-5-5-4-2-2-2-2-|
   'Crush these empires to ashes and make them wonder'

  Verse 2
e|-------------------------------------|-------------------------------|
B|-------------------------------------|-------------------------------|
G|-------------------------------------|-------------------------------|
D|-----11---11-----12---12-----11---12-|-----7---7-----9---9-----7---9-| 
A|-9-9----9----9-9----9----9-9----9----|-7-7---7---7-7---7---7-7---7---|
D|-9-9----9----9-9----9----9-9----9----|-7-7---7---7-7---7---7-7---7---|

e|-------------------------------------|-------------------------------|
B|-------------------------------------|-------------------------------|
G|-------------------------------------|-------------------------------|
D|-----11---11-----12---12-----11---12-|-----7---7-----9---7-----7---9-|
A|-------------------------------------|-------------------------------|
D|-------------------------------------|-------------------------------|

e|-13-13-9-9-11-11-9-9-|    |-13-13-9-9-----|
B|---------------------|    |---------------|
G|---------------------|    |---------------|
D|---------------------| x3 |------------7^-|
A|---------------------|    |---------------|
D|---------------------|    |---------------|

  Repeat Chorus 1

  Bridge 1
e|----------------| |------------------------|
B|----------------| |------------------------|
G|----------------| |------------------------|
D|-12------7------| |-5--4-5--4-5--4-2-2-2-2-|
A|-12-x12--7-x12--| |-5--4-5--4-5--4-2-2-2-2-|x2
D|-12------7------| |-5--4-5--4-5--4-2-2-2-2-|
   'If you could give us the answers now'

  Verse 3 (Repeat Verse 2)

  Bridge 2
e|-------------------------|
B|-------------------------|
G|-------------------------|
D|-------2-2-2-------2-2-2-|
A|-2-2-2-2-2-2-2-2-2-2-2-2-|
D|-2-2-2-------2-2-2-------|

  Repeat Bridge 1

  Chorus 2
e|-------------------------------------|---------------------------------|
B|-------------------------------------|---------------------------------|
G|-------------------------------------|---------------------------------|
D|-9-9-9-8-9-9-9-8-9-9-9-8-12-12-12-12-|-5-5-5-4-5-5-5-4-5-5-5-4-2-2-2-2-|
A|-9-9-9-8-9-9-9-8-9-9-9-8-12-12-12-12-|-5-5-5-4-5-5-5-4-5-5-5-4-2-2-2-2-|
D|-9-9-9-8-9-9-9-8-9-9-9-8-12-12-12-12-|-5-5-5-4-5-5-5-4-5-5-5-4-2-2-2-2-|

e|-------------------------------------|-------------------------| |---|
B|-------------------------------------|-------------------------| |---|
G|-------------------------------------|-------------------------| |---|
D|-9-9-9-8-9-9-9-8-9-9-9-8-12-12-12-12-|-5-5-5-4-5-5-5-4-5-5-5-5-| |-8-|
A|-9-9-9-8-9-9-9-8-9-9-9-8-12-12-12-12-|-5-5-5-4-5-5-5-4-5-5-5-5-| |-8-|x12
D|-9-9-9-8-9-9-9-8-9-9-9-8-12-12-12-12-|-5-5-5-4-5-5-5-4-5-5-5-5-| |-8-|

  Outro part 1
e|---------------|--------------|-----------------|
B|---------------|--------------|-----------------|
G|---------------|--------------|-----------------|
D|-----------0-0-|----------0-0-|-------------0-0-|
A|-7-5-7-8-7-0-0-|-11-9-8-9-0-0-|-14-12-11-12-0-0-|
D|-----------0-0-|----------0-0-|-------------0-0-|

e|-----------------------------------------|
B|-----------------------------------------|
G|-----------------------------------------|
D|-----------------------------------------|
A|-15-14-12-14-12-10-12-10-9-10-9-7-9-10-9-|
D|-----------------------------------------|

  Repeat Outro part 1 then;
  Fill
e|-----------------------------------------|
B|-----------------------------------------|
G|-----------------------------------------|
D|-----------------------------------------|
A|-15-14-12-14-12-10-12-10-9-10-9-7-9-10-9-|
D|-----------------------------------------|

  Outro part 1  x2
  
  Bridge 3
e|---------------------------|
B|---------------------------|
G|---------------------------|
D|---------------------------|
A|-0-8-10-8-------8-10-8-7-8-|
D|----------8-7-5------------|

  Outro part 2
e|---------------------------------|
B|---------------------------------|
G|---------------------------------|
D|-12-12-12-12-8-8-8-8-10-10-10-10-|
A|-12-12-12-12-8-8-8-8-10-10-10-10-|
D|-12-12-12-12-8-8-8-8-10-10-10-10-|
'I hope that in time that I'm okay with all of this'

e|---------------------------|
B|---------------------------|
G|---------------------------|
D|-5------4------9------2----|
A|-5-x7---4-x7---9-x7---2-x7-|
D|-5------4------9------2----|

e|---------------------------------|
B|---------------------------------|
G|---------------------------------|
D|-12-12-12-12-8-8-8-8-10-10-10-10-|
A|-12-12-12-12-8-8-8-8-10-10-10-10-|
D|-12-12-12-12-8-8-8-8-10-10-10-10-|
'I hope that in time that I'm okay with all of this'

e|----------------------------|
B|----------------------------|
G|----------------------------|
D|-5------4------9------11----|
A|-5-x7---4-x7---9-x7---11-x7-|
D|-5------4------9------11----|
 
 Outro part 1  x2

  End
e|-------------------------------------------|
B|-------------------------------------------|
G|-------------------------------------------|
D|-----------------------------------------0-|
A|-15-14-12-14-12-10-12-10-9-10-9-7-9-10-9-0-|
D|-----------------------------------------0-|

Song Order;	  Song Lyrics;

Intro/Verse 1	  We'll hold this off to build these machines
Chorus 1
Verse 2		  Crush these empires to ashes and make them wonder
Chorus 1
Bridge 1	  Just look out of your window and you'll find us here
Verse 3		  We can make a stand to stop the uproars
Bridge 2	  If you can fight in wars for that
Bridge 1		
Chorus 2	  Crush these empires to ashes and make them wonder
Outro part 1 x2
Fill		  If you could give us the answers now
Outro part 1 x2
Bridge 3	  Help us to end all the suffering
Outro part 2	  We'll clean the blood from all of our eyes
Outro part 1 x2	  take the rage away from us
End	
		  If you could give us the answers now

		  We could crush these empires to ashes
		  and make them wonder

		  I hope that in time that I'm okay with all of this		
Добавлено: 07.11.2013
Другие материалы по этой песне:
  • Аккорды и текст

Страница создана 24.03.2012
http://primanota.ru/fightstar/build-an-army-chords.htm
Привет, Гость.
Предлагаем пройти революционный курс по гитаре.
Подарок от PrimaNota.Ru, забирай!