PrimaNota.ru - самый крупный в мире бесплатный архив песенных текстов, аккордов, табулатур и нот


Fightstar - Battlefield - текст песни, таба, видео

Регистрация Запомнить меня
Войти через:  Facebook Google Twitter Vk Yandex Mail.ru

Fightstar - Battlefield - текст песни, таба, видео

Печатать
Просмотров: 200
Verse
Guitar 1 (Acoustic) - Charlie
E|------------------------------------------------------------------|
B|---------3--------------------------------------------------------|
G|------0----0--------------7---------------------------------------|
D|----2--------2----------7---7-----------4---4/5---5\4---4/2---2/4-|
A|---------------2------5-------5-------0---------------------------|
D|-2------------------5-----------5---0-----------------------------|

E|------------------------------------------------------------------|
B|---------3--------------------------------------------------------|
G|------0----0--------------7---------------------------------------|
D|----2--------2----------7---7-----------4---4/5---5\4---4/5---0/2-|
A|---------------2------5-------5-------0---------------------------|
D|-2------------------5-----------5---0-----------------------------|

Guitar 2 (Electric) - Alex
e|------------------------------------------|
B|------------------------------------------|
G|-11/12~-/-14~-\-11~---11/12~-/-14~-\\\\\7~|
D|------------------------------------------|
A|------------------------------------------|
D|------------------------------------------|


Pre Chorus 
Guitar 1 (x2)
e|-------------------------------------|
B|-------------------------------------|
G|-------------------------------------|
D|-77777777-55555555-00000000-00000000-|
A|-77777777-55555555-00000000-00000000-|
D|-77777777-55555555-00000000-00000000-|

Guitar 2
e|------|
B|-2~---|
G|------|
D|------|
A|------|
D|------|



Chorus
Guitar 1 (10s not 1s and 0s)
e|---------------------------------------------|
B|---------------------------------------------|
G|---------------------------------------------|
D|-1010101010101010-55555555-00000000-00000000-|
A|-1010101010101010-55555555-00000000-00000000-|
D|-1010101010101010-55555555-00000000-00000000-|

Guitar 2
Keeps playing this through out 
e|-----------10------------|
B|----10---------10-----10-|
G|-12-----12---------12----|
D|-------------------------|
A|-------------------------|
D|-------------------------|
Then switches to this during “Why does love....” and “get your armour”
e|---------5--------|
B|---5-------5----5-|
G|-7-----7------7---|
D|------------------|
A|------------------|
E|------------------|


Bridge
Guitar 1
e|----------------------------------|
B|----------------------------------|
G|----------------------------------|
D|----------------------------------|
A|----------------------------------|
E|-10(x16)-5(x8)-10(x8)-4(x8)-2(x8)-|

Then just before final chorus. Only drums play and guitar 2 plays Verse riff
e|------------------------------------------|
B|------------------------------------------|
G|-11/12~-/-14~-\-11~---11/12~-/-14~-\\\\\7~|
D|------------------------------------------|
A|------------------------------------------|
D|------------------------------------------|

Last Chorus
Guitar 1 plays same 

Guitar 2
e|-----------10------------|
B|----10---------10-----10-|
G|-12-----12---------12----|
D|-------------------------|
A|-------------------------|
D|-------------------------|

Then switches to this during “Why does love..” and plays this until the end
e|---------5--------|
B|---5-------5----5-|
G|-7-----7------7---|
D|------------------|
A|------------------|
E|------------------|

Добавлено: 26.07.2013
Другие материалы по этой песне:
  • Аккорды и текст

Страница создана 26.07.2013
http://primanota.ru/fightstar/battlefield-chords.htm
Привет, Гость.
Предлагаем пройти революционный курс по гитаре.
Подарок от PrimaNota.Ru, забирай!