PrimaNota.ru - самый крупный в мире бесплатный архив песенных текстов, аккордов, табулатур и нот


Fightstar - Athea - текст песни, таба, видео

Регистрация Запомнить меня
Войти через:  Facebook Google Twitter Vk Yandex Mail.ru

Fightstar - Athea - текст песни, таба, видео

Печатать
Просмотров: 198
INTRO
e|----------------------7-6---|
B|--------------------9-----7-|
G|-------8---11---------------|
D|-9h11---------8-6-----------|
A|----------------------------|
E|----------------------------|

e|--------------------------7-6---|
B|------------------------9-----7-|
G|-------8---11-------------------|
D|-9h11---------8-6-4-6-----------|
A|--------------------------------|
E|--------------------------------|


VERSE
e-19-18-----------------------------------|
B-------16-19-----19----21----------------|
G--------------19----19-------------------|
D---------------------------17-16-15---15-|
A--------------------------------------18-|
E-----------------------------------------|

e-19-18------------------------------|
B-------16-19-----19----21-----------|
G--------------19----19--------------|
D---------------------------17-16-15-|
A------------------------------------|
E------------------------------------|

e-19-18-----------------------------------|
B-------16-19-----19----21----------------|
G--------------19----19-------------------|
D---------------------------17-16-15---13-|
A-----------------------------------------|
E-----------------------------------------|

e-19-18---------------------------------|
B-------16-19-----19----21--------------|
G--------------19----19-----------------|
D---------------------------17-16-15-16-|
A---------------------------------------|
E---------------------------------------|


PRE CHORUS x2
e|-------------------------------------------------------|
B|-------------------------------------------------------|
G|-------------------------------------------------------|
D|-8---8---8---8---8---8---8---8-----9----9----9----9----|
A|---9---9---9---9---9---9---9---9-----11---11---11---11-|
E|-------------------------------------------------------|

e|-----------------|
B|-----------------|
G|-----------------|
D|-6---6---6---6---|
A|---8---8---8---8-|
E|-----------------|

CHORUS
e|------------------------------------------------------------------|
B|-4-4-4-4---4-4-4-4---4-4-4-4---4-4h5-----454---4-4-4-4---5-5-5-5--|
G|-------------------------------------6-6--------------------------|
D|------------------------------------------------------------------|
A|------------------------------------------------------------------|
E|------------------------------------------------------------------|

e|-----------------|
B|---------4-4-4-4-|
G|-4-4-4-4---------|
D|-----------------|
A|-----------------|
E|-----------------|


POST CHORUS
e|----------------------7-6---|
B|--------------------9-----7-|
G|-------8---11---------------|
D|-9h11---------8-9-----------|
A|----------------------------|
E|----------------------------|

e|----------------------7-6---|
B|--------------------9-----7-|
G|-------8---11---4-----------|
D|-9h11---------8-6-----------|
A|----------------------------|
E|----------------------------|


Repeat Verse, Pre Chorus and Chorus


POST CHORUS 2
e|----------------------7-6---|
B|--------------------9-----7-|
G|-------8---11---------------|
D|-9h11---------8-9-----------|
A|----------------------------|
E|----------------------------|

e|-------------------|
B|-------------------|
G|-------8---11---4~-|
D|-9h11---------8-6~-|
A|-------------------|
E|-------------------|

BRIDGE
Piano
e|------------------------------------------------------------------|
B|-4-4-4-4---4-4-4-4---4-4-4-4---4-4h5-----454---4-4-4-4---5-5-5-5--|
G|-------------------------------------6-6--------------------------|
D|------------------------------------------------------------------|
A|------------------------------------------------------------------|
E|------------------------------------------------------------------|

e|-----------------|
B|---------4-4-4-4-|
G|-4-4-4-4---------|
D|-----------------|
A|-----------------|
E|-----------------|

Guitar
e|----------11------11------------------------11h12p11------16-14---|
B|----12---------------12-------12\14-12-11------------11--------16-|
G|-13----13------13-------13-13-------------------------------------|
D|------------------------------------------------------------------|
A|------------------------------------------------------------------|
E|------------------------------------------------------------------|

e|-------------------------------------------|
B|-16-14-16----------------------16—-11b-----|
G|----------13~--13-15-16-15--13---------13~-|
D|-------------------------------------------|
A|-------------------------------------------|
E|-------------------------------------------|

OUTRO
e|----------------------7-6---|
B|--------------------9-----7-|
G|-------8---11---------------|
D|-9h11---------8-9-----------|
A|----------------------------|
E|----------------------------|

e|-------------------|
B|-------------------|
G|-------8---11---4~-|
D|-9h11---------8-6~-|
A|-------------------|
E|-------------------|
Добавлено: 02.08.2013
Другие материалы по этой песне:
  • Аккорды и текст

Страница создана 02.08.2013
http://primanota.ru/fightstar/athea-chords.htm
Привет, Гость.
Предлагаем пройти революционный курс по гитаре.
Подарок от PrimaNota.Ru, забирай!