PrimaNota.ru - самый крупный в мире бесплатный архив песенных текстов, аккордов, табулатур и нот


Fightstar - Amaze Us - текст песни, таба, бас-таба, видео

Регистрация Запомнить меня
Войти через:  Facebook Google Twitter Vk Yandex Mail.ru

Fightstar - Amaze Us - текст песни, таба, бас-таба, видео

Печатать
Просмотров: 121
----------------------------------------------------------------------------
			     Amaze us - Fightstar
----------------------------------------------------------------------------
Tabbed by:Birdsi
Email:HEHECYCLEPATH@hotmail.com

Charlie's Part
Tuning:Drop D (D,A,D,G,B,E)

e|-------------------------------------------------------------------------|
B|-------------------------------------------------------------------------|
G|-------------------------------------------------------------------------|
D|-----------------------XXXX----------------------------------------------|
A|-----------3h4h5-------XXXX-------3h5-3h5-2h3p2--------------------------|
D|-0-0-3p2-0-------3p2-0-XXXX-3p2-0---------------3------------------------|

e|-------------------------------------------------------------------------|
B|-------------------------------------------------------------------------|
G|-------------------------------------------------------------------------|
D|-----------------------XXXX----------------------------------------------|
A|-----------3h4h5-------XXXX-------3h5-3h5-2h3p2--------------------------|
D|-0-0-3p2-0-------3p2-0-XXXX-3p2-0---------------3------------------------|

e|-------------------------------------------------------------------------|
B|-------------------------------------------------------------------------|
G|-------------------------------------------------------------------------|
D|-0-0-3-2-0-10-11-12-3-2-0-XXXX-3-2-0-10h12-10h12-9h10p9-3----------------|
A|-0-0-3-2-0-10-11-12-3-2-0-XXXX-3-2-0-10h12-10h12-9h10p9-3----------------|
D|-0-0-3-2-0-10-11-12-3-2-0-XXXX-3-2-0-10h12-10h12-9h10p9-3----------------|

e|-------------------------------------------------------------------------|
B|-------------------------------------------------------------------------|
G|-------------------------------------------------------------------------|
D|-0-0-3-2-0-10-11-12-3-2-0-XXXX-3-2-0-10h12-10h12-9h10p9-3----------------|
A|-0-0-3-2-0-10-11-12-3-2-0-XXXX-3-2-0-10h12-10h12-9h10p9-3----------------|
D|-0-0-3-2-0-10-11-12-3-2-0-XXXX-3-2-0-10h12-10h12-9h10p9-3----------------|

e|--------------------------------------------------------------------------
B|-------------------------------------------------------------------------|
G|---------------------------------Doesn't-play----------------------------|
D|-----------------------------------in-verse------------------------------|
A|-------------------------------------------------------------------------|
D|-------------------------------------------------------------------------|

Pre-Chorus:
e|-------------------------------------------------------------------------|
B|-------------------------------------------------------------------------|
G|---11---11---11---11---11---11---11---11---12---12---12---12---12---12---|
D|-9----9----9----9----9----9----9----9----9----9----9----9----9----9----9-|
A|-------------------------------------------------------------------------|
D|-------------------------------------------------------------------------|

e|-------------------------------------------------------------------------|
B|-------------------------------------------------------------------------|
G|-12---12----------(TIMES 4)----------------------------------------------|
D|----9--------------------------------------------------------------------|
A|-------------------------------------------------------------------------|
D|-------------------------------------------------------------------------|

Chorus:
e|-------------------------------------------------------------------------|
B|-------------------------------------------------------------------------|
G|-------------------------------------------------------------------------|
D|-0-0-0-0-0-0-0-0-5-5-5-5-5-5-5-5-0-0-0-0-0-0-0-0-5-5-5-5-5-5-5-5---------|
A|-0-0-0-0-0-0-0-0-5-5-5-5-5-5-5-5-0-0-0-0-0-0-0-0-5-5-5-5-5-5-5-5---------|
D|-0-0-0-0-0-0-0-0-5-5-5-5-5-5-5-5-0-0-0-0-0-0-0-0-5-5-5-5-5-5-5-5---------|

e|-------------------------------------------------------------------------|
B|-------------------------------------------------------------------------|
G|-------------------------------------------------------------------------|
D|-0-0-0-0-0-0-0-0-5-5-5-5-5-5-5-5-0-0-0-0-0-0-0-0-5-5-5-5-5-5-5-5---------|
A|-0-0-0-0-0-0-0-0-5-5-5-5-5-5-5-5-0-0-0-0-0-0-0-0-5-5-5-5-5-5-5-5---------|
D|-0-0-0-0-0-0-0-0-5-5-5-5-5-5-5-5-0-0-0-0-0-0-0-0-5-5-5-5-5-5-5-5---------|

Post-chorus:
e|-------------------------------------------------------------------------|
B|-------------------------------------------------------------------------|
G|-------------------------------------Bend slightly when playing the six--|
D|-------------------------------------------------------------------------|
A|-5p3p0-3-------3-------3-------5p3p0-3-------3-----3---------------------|
D|---------0-0-0---0-0-0---0-0-0-----------3-3---4-4---5-5-----------------|

e|-------------------------------------------------------------------------|
B|-------------------------------------------------------------------------|
G|-------------------------------------Bend slightly when playing the six--|
D|-------------------------------------------------------------------------|
A|-5p3p0-3-------3-------3-------5p3p0-3-------3-----3---------------------|
D|---------0-0-0---0-0-0---0-0-0-----------3-3---4-4---5-5---6--6-6-6-6-6-6|

e|-------------------------------------------------------------------------|
B|-------------------------------------------------------------------------|
G|---------------------------------Doesn't-play----------------------------|
D|-----------------------------------in-verse------------------------------|
A|-------------------------------------------------------------------------|
D|-------------------------------------------------------------------------|

Pre-Chorus:
e|-------------------------------------------------------------------------|
B|-------------------------------------------------------------------------|
G|---11---11---11---11---11---11---11---11---12---12---12---12---12---12---|
D|-9----9----9----9----9----9----9----9----9----9----9----9----9----9----9-|
A|-------------------------------------------------------------------------|
D|-------------------------------------------------------------------------|

e|-------------------------------------------------------------------------|
B|-------------------------------------------------------------------------|
G|-12---12----------(TIMES 4)----------------------------------------------|
D|----9--------------------------------------------------------------------|
A|-------------------------------------------------------------------------|
D|-------------------------------------------------------------------------|

Chorus:
e|-------------------------------------------------------------------------|
B|-------------------------------------------------------------------------|
G|-------------------------------------------------------------------------|
D|-0-0-0-0-0-0-0-0-5-5-5-5-5-5-5-5-0-0-0-0-0-0-0-0-5-5-5-5-5-5-5-5---------|
A|-0-0-0-0-0-0-0-0-5-5-5-5-5-5-5-5-0-0-0-0-0-0-0-0-5-5-5-5-5-5-5-5---------|
D|-0-0-0-0-0-0-0-0-5-5-5-5-5-5-5-5-0-0-0-0-0-0-0-0-5-5-5-5-5-5-5-5---------|

e|-------------------------------------------------------------------------|
B|-------------------------------------------------------------------------|
G|-------------------------------------------------------------------------|
D|-0-0-0-0-0-0-0-0-5-5-5-5-5-5-5-5-0-0-0-0-0-0-0-0-5-5-5-5-5-5-5-5---------|
A|-0-0-0-0-0-0-0-0-5-5-5-5-5-5-5-5-0-0-0-0-0-0-0-0-5-5-5-5-5-5-5-5---------|
D|-0-0-0-0-0-0-0-0-5-5-5-5-5-5-5-5-0-0-0-0-0-0-0-0-5-5-5-5-5-5-5-5---------|

Post-chorus:

e|-------------------------------------------------------------------------|
B|-------------------------------------------------------------------------|
G|-------------------------------------Bend slightly when playing the six--|
D|-------------------------------------------------------------------------|
A|-5p3p0-3-------3-------3-------5p3p0-3-------3-----3---------------------|
D|---------0-0-0---0-0-0---0-0-0-----------3-3---4-4---5-5-----------------|

e|-------------------------------------------------------------------------|
B|-------------------------------------------------------------------------|
G|-------------------------------------Bend slightly when playing the six--|
D|-------------------------------------------------------------------------|
A|-5p3p0-3-------3-------3-------5p3p0-3-------3-----3---------------------|
D|---------0-0-0---0-0-0---0-0-0-----------3-3---4-4---5-5---6--6-6-6-6-6-6|

Bridge:
e|-------------------------------------------------------------------------|
B|-------------------------------------------------------------------------|
G|-------------------------------------------------------------------------|
D|------------------3-0-3-0-0-3-0-0-3-0-0-6-0-3-0-0-3-0-0-3-0-0-7-0-3-0-0-3|
A|-5p3p0------------3-0-3-0-0-3-0-0-3-0-0-6-0-3-0-0-3-0-0-3-0-0-7-0-3-0-0-3|
D|-------5p3p0-3-0--3-0-3-0-0-3-0-0-3-0-0-6-0-3-0-0-3-0-0-3-0-0-7-0-3-0-0-3|

e|-------------------------------------------------------------------------|
B|-------------------------------------------------------------------------|
G|--------------------------------------Bend slightly when playing the six-|
D|-0-0-3-0-0-8-0-3-0-0-3-0-0-3-0-0-----------------------------------------|
A|-0-0-3-0-0-8-0-3-0-0-3-0-0-3-0-0-----------------------------------------|
D|-0-0-3-0-0-8-0-3-0-0-3-0-0-3-0-0-6-6-6-6-6-6-6-6-6---------all(x2)-------|

Final Pre-chorus
e|-------------------------------------------------------------------------|
B|-------------------------------------------------------------------------|
G|------------------------7-------------------------------------7----------|
D|-0----------------------7-----------------0-------------------7----------|
A|-0-----let ring---------5-----------------0-------------------5----------|
D|-0----------------------5-----------------0-------------------5----------|

e|-------------------------------------------------------------------------|
B|-------------------------------------------------------------------------|
G|------------------------7-------------------------------------7----------|
D|-0----------------------7-----------------0-------------------7----------|
A|-0-----let ring---------5-----------------0-------------------5-5-5-5-5-5|
D|-0----------------------5-----------------0-------------------5-5-5-5-5-5|
                                                                  x x x x x
Chorus:
e|-------------------------------------------------------------------------|
B|-------------------------------------------------------------------------|
G|-------------------------------------------------------------------------|
D|-5-5-5-5-5-5-5-5-8-8-8-8-8-8-8-8-5-5-5-5-5-5-5-5-8-8-8-8-8-8-8-8---------|
A|-5-5-5-5-5-5-5-5-8-8-8-8-8-8-8-8-5-5-5-5-5-5-5-5-8-8-8-8-8-8-8-8---------|
D|-5-5-5-5-5-5-5-5-8-8-8-8-8-8-8-8-5-5-5-5-5-5-5-5-8-8-8-8-8-8-8-8---------|

e|-------------------------------------------------------------------------|
B|-------------------------------------------------------------------------|
G|-------------------------------------------------------------------------|
D|-5-5-5-5-5-5-5-5-8-8-8-8-8-8-8-8-5-5-5-5-5-5-5-5-8-8-8-8-8-8-8-8---------|
A|-5-5-5-5-5-5-5-5-8-8-8-8-8-8-8-8-5-5-5-5-5-5-5-5-8-8-8-8-8-8-8-8---------|
D|-5-5-5-5-5-5-5-5-8-8-8-8-8-8-8-8-5-5-5-5-5-5-5-5-8-8-8-8-8-8-8-8---------|

e|-------------------------------------------------------------------------|
B|-------------------------------------------------------------------------|
G|-------------------------------------------------------------------------|
D|-0-0-3-2-0-10-11-12-3-2-0-XXXX-3-2-0-------------------------------------|
A|-0-0-3-2-0-10-11-12-3-2-0-XXXX-3-2-0-------------------------------------|
D|-0-0-3-2-0-10-11-12-3-2-0-XXXX-3-2-0-------------------------------------|

This is my first tab ever an bein a huge fan of fightstar ive loved doin it big thanks 
that mental chris guy for postin the video on youtube

enjoy and email me with and comments or suggestions.


| /  slide up
| \  slide down
| h  hammer-on
| p  pull-off
| ~  vibrato
| +  harmonic
| x  Mute note
============================================================================
Добавлено: 27.08.2013
Другие материалы по этой песне:
  • Аккорды и текст

Страница создана 02.07.2012
http://primanota.ru/fightstar/amaze-us-chords.htm
Привет, Гость.
Предлагаем пройти революционный курс по гитаре.
Подарок от PrimaNota.Ru, забирай!