PrimaNota.ru - самый крупный в мире бесплатный архив песенных текстов, аккордов, табулатур и нот


Fighting With Wire - Everyone Needs A Nemesis - таба, бас-таба, видео

Регистрация Запомнить меня
Войти через:  Facebook Google Twitter Vk Yandex Mail.ru

Fighting With Wire - Everyone Needs A Nemesis - таба, бас-таба, видео

Печатать
Просмотров: 154
Intro 1: 00:00-00:06
eb|------------------------------------------|
Bb|---------5-5-5-5-5-5-5-5-5-5-5-5----------|
Gb|------------------------------------------| x2
Db|--4-4-4-----------------------------------|
Ab|--4-4-4-----------------------------------|
Db|--4-4-4-----------------------------------|

Intro Part 2: 00:06-00:11
eb|--------------------------------------------|
Bb|---------5-5-5-2-2-2------------------------|
Gb|------------------------2-2-2---------------| x2
Db|--4-4-4-------------------------------------|
Ab|--4-4-4-------------------------------------|
Db|--4-4-4-------------------------------------|

Intro Part 3: 00:11-00:17
eb|---------------------------------------------|
Bb|----------8-8-8------------------------------|
Gb|------------------6-6-6-7-7-7----------------|
Db|-7-7-7---------------------------------------| x2
Ab|-7-7-7---------------------------------------|
Db|-7-7-7---------------------------------------|

Intro Part 4: 00:17-00:22
eb|--------------------------------------------------|
Bb|--------------------------------------------------|
Gb|--------------------------------------------------| x2
Db|-4--0--4--0--4--0--------2-4----------------------|
Ab|-4--0--4--0--4--0---4-0---------------------------|
Db|-4--0--4--0--4--0---------------------------------|

Verse (With PM)

Who is this imposter...

eb|------------------------------------------------------|
Bb|---10-1010101010-9-9-9--7--7--7--etc------------------|
Gb|----9--9--9-9--9--9-9-9-9--9--9--9--------------------|
Db|----7-------------------------------------------------|
Ab|------------------------------------------------------|
Db|------------------------------------------------------|

Riff after the palm muting

eb|---------------------------------------------------|
Bb|--------10-----------------------------------------|
Gb|-------------9p0-----------------------------------| x4
Db|-----7---------------9h11--------------------------|
Ab|---------------------------------------------------|
Db|---------------------------------------------------|

Then first verse riff again

Then second verse riff before chorus

http://www.fightingwithwire.co.uk/Home.html
Добавлено: 22.06.2012
Вам также может быть интересно:
Другие материалы по этой песне:

Страница создана 26.03.2012
http://primanota.ru/fighting-with-wire/everyone-needs-a-nemesis-chords.htm
Привет, Гость.
Предлагаем пройти революционный курс по гитаре.
Подарок от PrimaNota.Ru, забирай!