PrimaNota.ru - самый крупный в мире бесплатный архив песенных текстов, аккордов, табулатур и нот


Fight - Revolution Calling - таба, видео

Регистрация Запомнить меня
Войти через:  Facebook Google Twitter Vk Yandex Mail.ru

Fight - Revolution Calling - таба, видео

Печатать
Просмотров: 150
Song:  Revolution Calling
Album: Nothing new since rock n'roll
Band:  The Fight
Email: Greenday_rhcp2002@yahoo.co.uk
Standard tuning

Listen 2 d song for timing and when to repeat parts..ect..Please rate and comment

Intro
|-----------------------------|
|-----------------------------|
|-777777-555555-444444-222222-|
|-777777-555555-444444-222222-|
|-555555-333333-222222-000000-|
|-----------------------------|
 


Verse                    Little lead bit
|-5-5-5-5-5-5-5-5-|    |----------------|
|-6-6-6-6-5-5-5-5-|    |-88-77-55-------|
|-7-7-7-7-7-7-7-7-|    |----------77-66-|
|-7-7-7-7-7-7-7-7-|    |----------------|
|-----------------|    |----------------|
|-----------------|    |----------------|


pre- chorus
|-------------------------------------|
|-------------------------------------|
|-------------------------------------|
|-77777777-99999999-77777777-99999999-|
|-77777777-99999999-77777777-99999999-|
|-55555555-77777777-55555555-77777777-|


Chorus
|---------------------|
|---------------------|
|-7777----------------|
|-7777-7777-9999-5555-|
|-5555-7777-9999-5555-|
|------5555-7777-3333-|x4



Solo
|----------------------------------------------------------------------|
|----------------------------------------------------------------------|
|-11-11-11-11-11-11-11-12-12-12-12-12-12-12-12-11-11-11-11-11-11-11-11-|
|--x--x--x--x--x--x--x--x--x--x--x--x--x--x--x--x--x--x--x--x--x--x--x-|
|--9--9--9--9--9--9--9-10-10-10-10-10-10-10-10--9--9--9--9--9--9--9--9-|
|----------------------------------------------------------------------|

|-----------------|
|-----------------|
|-9-9-9-9-9-9-9-9-|
|-x-x-x-x-x-x-x-x-|
|-7-7-7-7-7-7-7-7-|
|-----------------| This bit x2


|-------------------------------------------------------------------------|
|-------------------------------------------------------------------------|
|-11-11-12-11-11-12-12-12-12-14-12-11-12-11-11-11-11-12-11-11-11-11-9-7\6-|
|-------------------------------------------------------------------------|
|-------------------------------------------------------------------------|
|-------------------------------------------------------------------------|This bit x4
Добавлено: 27.07.2012
Другие материалы по этой песне:
  • Аккорды и текст

Страница создана 09.04.2012
http://primanota.ru/fight/revolution-calling-chords.htm
Привет, Гость.
Предлагаем пройти революционный курс по гитаре.
Подарок от PrimaNota.Ru, забирай!