PrimaNota.ru - самый крупный в мире бесплатный архив песенных текстов, аккордов, табулатур и нот


Fight - Life In Black - текст песни, таба, видео

Регистрация Запомнить меня
Войти через:  Facebook Google Twitter Vk Yandex Mail.ru

Fight - Life In Black - текст песни, таба, видео

Печатать
Просмотров: 137
(intro)
1|------------------------------------------------|
2|------------------------------------------------|
3|------------------------------------------------|
4|------5-4~-----3-2~-3-2----------5-4~----3-2~---|
5|--0-0------0-0----------3-0--0-0-----0-0--------|
6|------------------------------------------------|

Play 4 times

1|----------------------------------------------------------------|
2|----------------------------------------------------------------|
3|----------------------------------------------------------------|
4|--2---------------3-------------3-2---------------333-333-333---|
5|--0-0-0-0-0-0-0-0-1-1-1-1-1-1-1-1-0-0-0-0-0-0-0-0-111-111-111---|
6|----------------------------------------------------------------|
      . . . . . .     . . . . . .     . . . . . . .
1|----------------------------------------------------------------|
2|----------------------------------------------------------------|
3|----------------------------------------------------------------|
4|--2-------------2-3-------3-5-3-5-2---------------333-333-333---|
5|--0-0-0-0-0-0-0-0-1-1-1-1-1-3-1-3-0-0-0-0-0-0-0-0-111-111-111---|
6|----------------------------------------------------------------|
      . . . . . .     . . .           . . . . . . .
1|------------------------------------------------|
2|------------------------------------------------|
3|------------------------------------------------|
4|------5-4~-----3-2~-3-2----------5-4~----3-2~---|
5|--0-0------0-0----------3-0--0-0-----0-0--------|
6|------------------------------------------------|

Play twice

1|----------------------------------------------------------------|
2|----------------------------------------------------------------|
3|----------------------------------------------------------------|
4|--2-------------2-3-------3-5-3-5-2---------------333-333-333---|
5|--0-0-0-0-0-0-0-0-1-1-1-1-1-3-1-3-0-0-0-0-0-0-0-0-111-111-111---|
6|----------------------------------------------------------------|
      . . . . . .     . . .           . . . . . . .
Play twice

1|------------------------------------------------|
2|------------------------------------------------|
3|------------------------------------------------|
4|------5-4~-----3-2~-3-2----------5-4~----3-2~---|
5|--0-0------0-0----------3-0--0-0-----0-0--------|
6|------------------------------------------------|

Play Twice

(interlude behind the solo)
1|------------------------------------|
2|------------------------------------|
3|------------------------------------|
4|--6-------------6-8-------------8---|
5|--4-4-4-4-4-4-4-4-6-6-6-6-6-6-6-6---|
6|------------------------------------|
                     8                 6     [  8 6  ]
Play 3 Times(go from 6 right back into 4 ex. [6-6-4-4])

(end interlude riff)
1|--------------------------------|
2|--------------------------------|
3|--------------------------------|
4|--6-------------6-888-888-888---|
5|--4-4-4-4-4-4-4-4-666-666-666---|
6|--------------------------------|

1|------------------------------------------------|
2|------------------------------------------------|
3|------------------------------------------------|
4|------5-4~-----3-2~-3-2----------5-4~----3-2~---|
5|--0-0------0-0----------3-0--0-0-----0-0--------|
6|------------------------------------------------|

Play Twice

1|----------------------------------------------------------------|
2|----------------------------------------------------------------|
3|----------------------------------------------------------------|
4|--2---------------3-------------3-2---------------333-333-333---|
5|--0-0-0-0-0-0-0-0-1-1-1-1-1-1-1-1-0-0-0-0-0-0-0-0-111-111-111---|
6|----------------------------------------------------------------|
      . . . . . .     . . . . . .     . . . . . . .
1|----------------------------------------------------------------|
2|----------------------------------------------------------------|
3|----------------------------------------------------------------|
4|--2-------------2-3-------3-5-3-5-2---------------333-333-333---|
5|--0-0-0-0-0-0-0-0-1-1-1-1-1-3-1-3-0-0-0-0-0-0-0-0-111-111-111---|
6|----------------------------------------------------------------|
      . . . . . .     . . .           . . . . . . .
1|------------------------------------------------|
2|------------------------------------------------|
3|------------------------------------------------|
4|------5-4~-----3-2~-3-2----------5-4~----3-2~---|
5|--0-0------0-0----------3-0--0-0-----0-0--------|
6|------------------------------------------------|

Play Twice

1|--------------------------------------------|
2|--------------------------------------------|
3|--------------------------------------------|
4|------7-4~----5-4-5-4---------7-6-----5-4~--|
5|------5-6~----3-2-3-2-5-2-----5-4-----3-2~--|
6|--0-0-----0-0---------3-0-0-0-----0-0-------|
    . .     . .     . . .   . .     . .
Play 3 times

1|-----------------------------------------------------------|
2|-----------------------------------------------------------|
3|-----------------------------------------------------------|
4|------7-4~----5-4-5-4---------7-6-----5-4--5---4-----------|
5|------5-6~----3-2-3-2-5-2-----5-4-----3-2--3---2---5---2---|
6|--0-0-----0-0---------3-0-0-0-----0-0--------------3---0---|
    . .     . .     . . .   . .     . .

~ = vibrato
. = palm mute

If you have any questions/comments/complaints/suggestions feel free to contact me 
at darkv3ng3ance@yahoo.com

"Live to Fight, Fight to Live"
Добавлено: 25.07.2012
Другие материалы по этой песне:

Страница создана 28.02.2012
http://primanota.ru/fight/life-in-black-chords.htm
Привет, Гость.
Предлагаем пройти революционный курс по гитаре.
Подарок от PrimaNota.Ru, забирай!