PrimaNota.ru - самый крупный в мире бесплатный архив песенных текстов, аккордов, табулатур и нот


Fight Paris - Burn Baby Burn - таба, видео

Регистрация Запомнить меня
Войти через:  Facebook Google Twitter Vk Yandex Mail.ru

Fight Paris - Burn Baby Burn - таба, видео

Печатать
Просмотров: 95
As recorded by Fight Paris

Words and Music by Fight Paris
Arranged by Fight Paris
Transcribed by jonathanonfire

Gtr I (C G C F A D) - 'Untitled'
Gtr II (C G C F A D) - 'Untitled'
Gtr III (C G C F A D) - 'Untitled'

 Intro
  Dancefight Q=97
  D5    N.C.
 5/8
  Gtr I
  S S S S     S S S     S S S
|-----------------------------|
|-------4-----4-4-4-----4-4---|
|-------7b7.5r7-7-7b7.5r7-7---|
|-0-0-------------------------|
|-0-0-------------------------|
|-0-0-------------------------|


  D5    N.C.                    D5    N.C.
  Gtr II                        Gtr I
  S S S S     S S S     S S S   S S S S     S S S     S S S
|-----------------------------|-----------------------------|
|-------4-----4-4-4-----4-4---|-------4-----4-4-4-----4-4---|
|-------7b7.5r7-7-7b7.5r7-7---|-------7b7.5r7-7-7b7.5r7-7---|
|-0-0-------------------------|-0-0-------------------------|
|-0-0-------------------------|-0-0-------------------------|
|-0-0-------------------------|-0-0-------------------------|


  Gtr II                        Gtr I
  S S S S     S S S     S S S   S S S S     S S S     S S S
|-----------------------------|-----------------------------|
|-------4-----4-4-4-----4-4---|-------4-----4-4-4-----4-4---|
|-------7b7.5r7-7-7b7.5r7-7---|-------7b7.5r7-7-7b7.5r7-7---|
|-0-0-------------------------|-0-0-------------------------|
|-0-0-------------------------|-0-0-------------------------|
|-0-0-------------------------|-0-0-------------------------|


  Gtr II
  S S S S     S S S     S S S
|------------------------------|
|-------4-----4-4-4-----4-4----|
|-------7b7.5r7-7-7b7.5r7-7----|
|-0-0--------------------------|
|-0-0--------------------------|
|-0-0--------------------------|


  Gtr I                         Gtr II
  S S S S     S S S     S S S   S S S S     S S S     S S S
|-----------------------------|-----------------------------|
|-------4-----4-4-4-----4-4---|-------4-----4-4-4-----4-4---|
|-------7b7.5r7-7-7b7.5r7-7---|-------7b7.5r7-7-7b7.5r7-7---|
|-0-0-------------------------|-0-0-------------------------|
|-0-0-------------------------|-0-0-------------------------|
|-0-0-------------------------|-0-0-------------------------|


  Gtr I
  S S S S     S S S     S S S
|------------------------------||
|-------4-----4-4-4-----4-4----||
|-------7b7.5r7-7-7b7.5r7-7----||
|-0-0--------------------------||
|-0-0--------------------------||
|-0-0--------------------------||


 Verse
  D5
 4/4
  Gtrs I, II                                                   Gtr III
                                                               TP
  S S E S S E S S Q.     H.       Q     S S E S S E S S Q.     W        a
|----------------------|--------------|----------------------|------------|
|----------------------|--------------|----------------------|------------|
|----------------------|--------------|----------------------|------------|
|-0-0---0-0---0-0------|---------12\--|-0-0---0-0---0-0------|-xs=======x-|
|-0-0---0-0---0-0------|---------12\--|-0-0---0-0---0-0------|-xs=======x-|
|-0-0---0-0---0-0------|---------12\--|-0-0---0-0---0-0------|-xs=======x-|


  D5
  Gtrs I, II             Gtr III
                              TP
  S S E S S E S S Q.     H    H
|----------------------|------------|
|----------------------|------------|
|----------------------|------------|
|-0-0---0-0---0-0------|------x/----|
|-0-0---0-0---0-0------|------x/----|
|-0-0---0-0---0-0------|------x/----|


                              N.C.
  Gtrs I, II
  S S E S S E S S Q.     H    S S S S S S S S
|----------------------|------------------------|
|----------------------|------4-4-4-4-4-4-4-4---|
|----------------------|------7-7-7-7-7-7-7-7---|
|-0-0---0-0---0-0------|------------------------|
|-0-0---0-0---0-0------|------------------------|
|-0-0---0-0---0-0------|------------------------|


  D5
  S S E S S E S S Q.     H.       Q     S S E S S E S S Q.     W
|----------------------|--------------|----------------------|------|
|----------------------|--------------|----------------------|------|
|----------------------|--------------|----------------------|------|
|-0-0---0-0---0-0------|---------12\--|-0-0---0-0---0-0------|------|
|-0-0---0-0---0-0------|---------12\--|-0-0---0-0---0-0------|------|
|-0-0---0-0---0-0------|---------12\--|-0-0---0-0---0-0------|------|


  D5
                         Gtr III       Gtrs I, II             Gtr III
                              TP                              TP
  S S E S S E S S Q.     H    H    a   S S E S S E S S Q.     W
|----------------------|-------------|----------------------|-------||
|----------------------|-------------|----------------------|-------||
|----------------------|-------------|----------------------|-------||
|-0-0---0-0---0-0------|------xS===x-|-0-0---0-0---0-0------|-x\----||
|-0-0---0-0---0-0------|------xS===x-|-0-0---0-0---0-0------|-x\----||
|-0-0---0-0---0-0------|------xS===x-|-0-0---0-0---0-0------|-x\----||


   Chorus
    D5    A5          Asus4
    Gtrs I, II
    E E S  S  S  S  S  S  S  S  S  S  S  S
||-----------------------------------------|
||o-------17-17-17-17-15-15-15-15-15-15-15-|
||--------14-14-14-14-14-14-14-14-14-14-14-|
||--0-0-x----------------------------------|
||o-0-0-x----------------------------------|
||--0-0-x----------------------------------|


  D5    A5          Am          Asus4
  E E S  S  S  S  S  S  S  S  S  S  S  S
|----------------------------------------|
|-------17-17-17-17-13-13-13-13-15-15-15-|
|-------14-14-14-14-14-14-14-14-14-14-14-|
|-0-0-x----------------------------------|
|-0-0-x----------------------------------|
|-0-0-x----------------------------------|


  1.,2.
  Bb5
  Gtr I
   S  S  S  S  S  S  S  S  S  S  S  S  S  S  S  S
|-------------------------------------------------|
|-------------------------------------------------|
|-10-10-10-10-10-10-10-10-12-12-12-12-12-12-12-12-|
|--x--x--x--x--x--x--x--x--x--x--x--x--x--x--x--x-|
|--8--8--8--8--8--8--8--8-10-10-10-10-10-10-10-10-|
|-------------------------------------------------|
|
| Gtr II
|  S  S  S  S  S  S  S  S  S  S  S  S  S  S  S  S
|-------------------------------------------------|
|-------------------------------------------------|
|-------------------------------------------------|
|--8--8--8--8--8--8--8--8--8--8--8--8--8--8--8--8-|
|--8--8--8--8--8--8--8--8--8--8--8--8--8--8--8--8-|
|--8--8--8--8--8--8--8--8--8--8--8--8--8--8--8--8-|


  Bbsus2
   S  S  S  S  S  S  S  S  S  S  S  S  S  S  S  S  3x
|--------------------------------------------------||
|-------------------------------------------------o||
|-12-12-12-12-12-12-12-12-12-12-12-12-12-12-12-12--||
|--x--x--x--x--x--x--x--x--x--x--x--x--x--x--x--x--||
|-10-10-10-10-10-10-10-10-10-10-10-10-10-10-10-10-o||
|--------------------------------------------------||
|
|  S  S  S  S  S  S  S  S  S  S  S  S  S  S  S  S  3x
|--------------------------------------------------||
|-------------------------------------------------o||
|--------------------------------------------------||
|-10-10-10-10-10-10-10-10-10-10-10-10-10-10-10-10--||
|--8--8--8--8--8--8--8--8--8--8--8--8--8--8--8--8-o||
|--8--8--8--8--8--8--8--8--8--8--8--8--8--8--8--8--||


  3.
  Bb5
  Gtr I
   S  S  S  S  S  S  S  S  S  S  S  S  S  S  S  S
|-17-17-17-17-17-17-17-17-17-17-17-17-17-17-17-17-|
|--x--x--x--x--x--x--x--x--x--x--x--x--x--x--x--x-|
|-14-14-14-14-14-14-14-14-14-14-14-14-14-14-14-14-|
|-------------------------------------------------|
|-------------------------------------------------|
|-------------------------------------------------|
|
| Gtr II
|  S  S  S  S  S  S  S  S  S  S  S  S  S  S  S  S
|-------------------------------------------------|
|-------------------------------------------------|
|-------------------------------------------------|
|--8--8--8--8--8--8--8--8--8--8--8--8--8--8--8--8-|
|--8--8--8--8--8--8--8--8--8--8--8--8--8--8--8--8-|
|--8--8--8--8--8--8--8--8--8--8--8--8--8--8--8--8-|


  Bbsus2
   S  S  S  S  S  S  S  S  S  S  S  S  S  S  S  S
|-15-15-15-15-15-15-15-15-12-12-12-12-12-12-12-12-|
|--x--x--x--x--x--x--x--x--x--x--x--x--x--x--x--x-|
|-12-12-12-12-12-12-12-12--9--9--9--9--9--9--9--9-|
|-------------------------------------------------|
|-------------------------------------------------|
|-------------------------------------------------|
|
|  S  S  S  S  S  S  S  S  S  S  S  S  S  S  S  S
|-------------------------------------------------|
|-------------------------------------------------|
|-------------------------------------------------|
|-10-10-10-10-10-10-10-10-10-10-10-10-10-10-10-10-|
|--8--8--8--8--8--8--8--8--8--8--8--8--8--8--8--8-|
|--8--8--8--8--8--8--8--8--8--8--8--8--8--8--8--8-|


  D5    A5          Asus4
  Gtrs I, II
  E E S  S  S  S  S  S  S  S  S  S  S  S
|----------------------------------------|
|-------17-17-17-17-15-15-15-15-15-15-15-|
|-------14-14-14-14-14-14-14-14-14-14-14-|
|-0-0-x----------------------------------|
|-0-0-x----------------------------------|
|-0-0-x----------------------------------|


  D5    A5          Am          Asus4
  E E S  S  S  S  S  S  S  S  S  S  S  S
|----------------------------------------|
|-------17-17-17-17-13-13-13-13-15-15-15-|
|-------14-14-14-14-14-14-14-14-14-14-14-|
|-0-0-x----------------------------------|
|-0-0-x----------------------------------|
|-0-0-x----------------------------------|


  Bb5
  Gtr I
   S  S  S  S  S  S  S  S  S  S  S  S  S  S  S  S
|-------------------------------------------------|
|-------------------------------------------------|
|-10-10-10-10-10-10-10-10-12-12-12-12-12-12-12-12-|
|--x--x--x--x--x--x--x--x--x--x--x--x--x--x--x--x-|
|--8--8--8--8--8--8--8--8-10-10-10-10-10-10-10-10-|
|-------------------------------------------------|
|
| Gtr II
|  S  S  S  S  S  S  S  S  S  S  S  S  S  S  S  S
|-------------------------------------------------|
|-------------------------------------------------|
|-------------------------------------------------|
|--8--8--8--8--8--8--8--8--8--8--8--8--8--8--8--8-|
|--8--8--8--8--8--8--8--8--8--8--8--8--8--8--8--8-|
|--8--8--8--8--8--8--8--8--8--8--8--8--8--8--8--8-|


  Bbsus2
   S  S  S  S  S  S  S  S  S  S  S  S  S  S  S  S
|-------------------------------------------------||
|-------------------------------------------------||
|-12-12-12-12-12-12-12-12-12-12-12-12-12-12-12-12-||
|--x--x--x--x--x--x--x--x--x--x--x--x--x--x--x--x-||
|-10-10-10-10-10-10-10-10-10-10-10-10-10-10-10-10-||
|-------------------------------------------------||
|
|  S  S  S  S  S  S  S  S  S  S  S  S  S  S  S  S
|-------------------------------------------------||
|-------------------------------------------------||
|-------------------------------------------------||
|-10-10-10-10-10-10-10-10-10-10-10-10-10-10-10-10-||
|--8--8--8--8--8--8--8--8--8--8--8--8--8--8--8--8-||
|--8--8--8--8--8--8--8--8--8--8--8--8--8--8--8--8-||


 Verse
  D5
  Gtrs I, II                                                   Gtr III
                                                               TP
  S S E S S E S S Q.     H.       Q     S S E S S E S S Q.     W        a
|----------------------|--------------|----------------------|--------------|
|----------------------|--------------|----------------------|--------------|
|----------------------|--------------|----------------------|--------------|
|-0-0---0-0---0-0------|---------12\--|-0-0---0-0---0-0------|-xs=======x---|
|-0-0---0-0---0-0------|---------12\--|-0-0---0-0---0-0------|-xs=======x---|
|-0-0---0-0---0-0------|---------12\--|-0-0---0-0---0-0------|-xs=======x---|


  D5
  Gtrs I, II             Gtr III      Gtrs I, II             Gtr III
                              TP                             TP
  S S E S S E S S Q.     H    H       S S E S S E S S Q.     W        a
|----------------------|------------|----------------------|--------------|
|----------------------|------------|----------------------|--------------|
|----------------------|------------|----------------------|--------------|
|-0-0---0-0---0-0------|------x/----|-0-0---0-0---0-0------|-xs=======x---|
|-0-0---0-0---0-0------|------x/----|-0-0---0-0---0-0------|-xs=======x---|
|-0-0---0-0---0-0------|------x/----|-0-0---0-0---0-0------|-xs=======x---|


  D5
  Gtrs I, II
  S S E S S E S S Q.     H.       Q     S S E S S E S S Q.     W
|----------------------|--------------|----------------------|------|
|----------------------|--------------|----------------------|------|
|----------------------|--------------|----------------------|------|
|-0-0---0-0---0-0------|---------12\--|-0-0---0-0---0-0------|------|
|-0-0---0-0---0-0------|---------12\--|-0-0---0-0---0-0------|------|
|-0-0---0-0---0-0------|---------12\--|-0-0---0-0---0-0------|------|


  D5
                         Gtr III       Gtrs I, II             Gtr III
                              TP                              TP
  S S E S S E S S Q.     H    H    a   S S E S S E S S Q.     W
|----------------------|-------------|----------------------|-------||
|----------------------|-------------|----------------------|-------||
|----------------------|-------------|----------------------|-------||
|-0-0---0-0---0-0------|------xS===x-|-0-0---0-0---0-0------|-x\----||
|-0-0---0-0---0-0------|------xS===x-|-0-0---0-0---0-0------|-x\----||
|-0-0---0-0---0-0------|------xS===x-|-0-0---0-0---0-0------|-x\----||


   Chorus
    D5    A5          Asus4
    Gtrs I, II
    E E S  S  S  S  S  S  S  S  S  S  S  S
||-----------------------------------------|
||o-------17-17-17-17-15-15-15-15-15-15-15-|
||--------14-14-14-14-14-14-14-14-14-14-14-|
||--0-0-x----------------------------------|
||o-0-0-x----------------------------------|
||--0-0-x----------------------------------|


  D5    A5          Am          Asus4
  E E S  S  S  S  S  S  S  S  S  S  S  S
|----------------------------------------|
|-------17-17-17-17-13-13-13-13-15-15-15-|
|-------14-14-14-14-14-14-14-14-14-14-14-|
|-0-0-x----------------------------------|
|-0-0-x----------------------------------|
|-0-0-x----------------------------------|


  1.,2.
  Bb5
  Gtr I
   S  S  S  S  S  S  S  S  S  S  S  S  S  S  S  S
|-------------------------------------------------|
|-------------------------------------------------|
|-10-10-10-10-10-10-10-10-12-12-12-12-12-12-12-12-|
|--x--x--x--x--x--x--x--x--x--x--x--x--x--x--x--x-|
|--8--8--8--8--8--8--8--8-10-10-10-10-10-10-10-10-|
|-------------------------------------------------|
|
| Gtr II
|  S  S  S  S  S  S  S  S  S  S  S  S  S  S  S  S
|-------------------------------------------------|
|-------------------------------------------------|
|-------------------------------------------------|
|--8--8--8--8--8--8--8--8--8--8--8--8--8--8--8--8-|
|--8--8--8--8--8--8--8--8--8--8--8--8--8--8--8--8-|
|--8--8--8--8--8--8--8--8--8--8--8--8--8--8--8--8-|


  Bbsus2
   S  S  S  S  S  S  S  S  S  S  S  S  S  S  S  S  3x
|--------------------------------------------------||
|-------------------------------------------------o||
|-12-12-12-12-12-12-12-12-12-12-12-12-12-12-12-12--||
|--x--x--x--x--x--x--x--x--x--x--x--x--x--x--x--x--||
|-10-10-10-10-10-10-10-10-10-10-10-10-10-10-10-10-o||
|--------------------------------------------------||
|
|  S  S  S  S  S  S  S  S  S  S  S  S  S  S  S  S  3x
|--------------------------------------------------||
|-------------------------------------------------o||
|--------------------------------------------------||
|-10-10-10-10-10-10-10-10-10-10-10-10-10-10-10-10--||
|--8--8--8--8--8--8--8--8--8--8--8--8--8--8--8--8-o||
|--8--8--8--8--8--8--8--8--8--8--8--8--8--8--8--8--||


  3.
  Bb5
  Gtr I
   S  S  S  S  S  S  S  S  S  S  S  S  S  S  S  S
|-17-17-17-17-17-17-17-17-17-17-17-17-17-17-17-17-|
|--x--x--x--x--x--x--x--x--x--x--x--x--x--x--x--x-|
|-14-14-14-14-14-14-14-14-14-14-14-14-14-14-14-14-|
|-------------------------------------------------|
|-------------------------------------------------|
|-------------------------------------------------|
|
| Gtr II
|  S  S  S  S  S  S  S  S  S  S  S  S  S  S  S  S
|-------------------------------------------------|
|-------------------------------------------------|
|-------------------------------------------------|
|--8--8--8--8--8--8--8--8--8--8--8--8--8--8--8--8-|
|--8--8--8--8--8--8--8--8--8--8--8--8--8--8--8--8-|
|--8--8--8--8--8--8--8--8--8--8--8--8--8--8--8--8-|


  Bbsus2
   S  S  S  S  S  S  S  S  S  S  S  S  S  S  S  S
|-15-15-15-15-15-15-15-15-12-12-12-12-12-12-12-12-|
|--x--x--x--x--x--x--x--x--x--x--x--x--x--x--x--x-|
|-12-12-12-12-12-12-12-12--9--9--9--9--9--9--9--9-|
|-------------------------------------------------|
|-------------------------------------------------|
|-------------------------------------------------|
|
|  S  S  S  S  S  S  S  S  S  S  S  S  S  S  S  S
|-------------------------------------------------|
|-------------------------------------------------|
|-------------------------------------------------|
|-10-10-10-10-10-10-10-10-10-10-10-10-10-10-10-10-|
|--8--8--8--8--8--8--8--8--8--8--8--8--8--8--8--8-|
|--8--8--8--8--8--8--8--8--8--8--8--8--8--8--8--8-|


  D5    A5          Asus4
  Gtrs I, II
  E E S  S  S  S  S  S  S  S  S  S  S  S
|----------------------------------------|
|-------17-17-17-17-15-15-15-15-15-15-15-|
|-------14-14-14-14-14-14-14-14-14-14-14-|
|-0-0-x----------------------------------|
|-0-0-x----------------------------------|
|-0-0-x----------------------------------|


  D5    A5          Am          Asus4
  E E S  S  S  S  S  S  S  S  S  S  S  S
|----------------------------------------|
|-------17-17-17-17-13-13-13-13-15-15-15-|
|-------14-14-14-14-14-14-14-14-14-14-14-|
|-0-0-x----------------------------------|
|-0-0-x----------------------------------|
|-0-0-x----------------------------------|


  Bb5
  Gtr I
   S  S  S  S  S  S  S  S  S  S  S  S  S  S  S  S
|-------------------------------------------------|
|-------------------------------------------------|
|-10-10-10-10-10-10-10-10-12-12-12-12-12-12-12-12-|
|--x--x--x--x--x--x--x--x--x--x--x--x--x--x--x--x-|
|--8--8--8--8--8--8--8--8-10-10-10-10-10-10-10-10-|
|-------------------------------------------------|
|
| Gtr II
|  S  S  S  S  S  S  S  S  S  S  S  S  S  S  S  S
|-------------------------------------------------|
|-------------------------------------------------|
|-------------------------------------------------|
|--8--8--8--8--8--8--8--8--8--8--8--8--8--8--8--8-|
|--8--8--8--8--8--8--8--8--8--8--8--8--8--8--8--8-|
|--8--8--8--8--8--8--8--8--8--8--8--8--8--8--8--8-|


  Bbsus2                  G5F#G5BbA5F#5
                          |-3-| |-3-|
   S  S  S  S  S  S  S  S E E E E E E
|-------------------------------------||
|-------------------------------------||
|-12-12-12-12-12-12-12-12-------------||
|--x--x--x--x--x--x--x--x-5-4-5-8-7-4-||
|-10-10-10-10-10-10-10-10-5-4-5-8-7-4-||
|-------------------------5-4-5-8-7-4-||
|
|                         |-3-| |-3-|
|  S  S  S  S  S  S  S  S E E E E E E
|-------------------------------------||
|-------------------------------------||
|-------------------------------------||
|-10-10-10-10-10-10-10-10-5-4-5-8-7-4-||
|--8--8--8--8--8--8--8--8-5-4-5-8-7-4-||
|--8--8--8--8--8--8--8--8-5-4-5-8-7-4-||


   Breakdown
    D5  A5 D5  A5 D5  A5 D5  A5   D5  A5 D5  A5 G5F#G5BbA5F#5
    Gtrs I, II
    PM|    PM|    PM|    PM|      PM|    PM|
                                                |-3-| |-3-|
    S S  E S S  E S S  E S S  E   S S  E S S  E E E E E E E  4x
||------------------------------|----------------------------||
||o-----17-----17-----17-----17-|-----17-----17-------------o||
||------14-----14-----14-----14-|-----14-----14--------------||
||------------------------------|---------------5-4-5-8-7-4--||
||o-0-0----0-0----0-0----0-0----|-0-0----0-0----5-4-5-8-7-4-o||
||--0-0----0-0----0-0----0-0----|-0-0----0-0----5-4-5-8-7-4--||


 Outro
  Q=67H.=H    Q=55
  G5F#G5BbA5F#G5F#G5BbA5F#5 G5       D5
                                               >
  |-3-| |-3-| |-3-| |-3-|
  E E E E E E E E E E E E   Q  Q  E. Q  +S    +W           +W
|-------------------------|-----------------|------------|--------*|
|-------------------------|-----------------|------------|--------*|
|-------------------------|-----------------|------------|--------*|
|-5-4-5-8-7-4-5-4-5-8-7-4-|-5--5--5--0--(0)-|-(0)--------|-(0)----*|
|-5-4-5-8-7-4-5-4-5-8-7-4-|-5--5--5--0--(0)-|-(0)--------|-(0)----*|
|-5-4-5-8-7-4-5-4-5-8-7-4-|-5--5--5--0--(0)-|-(0)--------|-(0)----*|


Duration Legend
---------------
W - whole; H - half; Q - quarter; E - 8th; S - 16th; T - 32nd; X - 64th; a - acciaccatura
+ - note tied to previous; . - note dotted; .. - note double dotted
Uncapitalized letters represent notes that are staccato (1/2 duration)
Irregular groupings are notated above the duration line
Duration letters will always appear directly above the note/fret number it represents the
duration for.  Duration letters with no fret number below them represent rests.  Multi-
bar rests are notated in the form Wxn, where n is the number of bars to rest for.  Low
melody durations appear below the staff

Tablature Legend
----------------
 h   - hammer-on
 p   - pull-off
 b   - bend
 pb  - pre-bend
 r   - bend release (if no number after the r, then release immediately)
 /\  - slide into or out of (from/to "nowhere")
 s   - legato slide
 S   - shift slide
  - natural harmonic
[n]  - artificial harmonic
n(n) - tapped harmonic
 ~   - vibrato
 tr  - trill
 T   - tap
 TP  - trem. picking
 PM  - palm muting
\n/  - tremolo bar dip; n = amount to dip
 \n  - tremolo bar down
 n/  - tremolo bar up
/n\  - tremolo bar inverted dip
 =   - hold bend; also acts as connecting device for hammers/pulls
 <>  - volume swell (louder/softer)
 x   - on rhythm slash represents muted slash
 o   - on rhythm slash represents single note slash

Misc Legend
-----------
 |  - bar
||  - double bar
||o - repeat start
o|| - repeat end
*|  - double bar (ending)
 :  - bar (freetime)
 $  - Segno
 &  - Coda
Tempo markers -  = BPM(8/16=s8/s16), where s8 = swing 8ths, s16 = swing 16ths


Добавлено: 02.06.2012
Вам также может быть интересно:
Другие материалы по этой песне:

Страница создана 20.05.2012
http://primanota.ru/fight-paris/burn-baby-burn-chords.htm
Привет, Гость.
Предлагаем пройти революционный курс по гитаре.
Подарок от PrimaNota.Ru, забирай!