PrimaNota.ru - самый крупный в мире бесплатный архив песенных текстов, аккордов, табулатур и нот


Fight Or Flight - Its Over - таба, видео

Регистрация Запомнить меня
Войти через:  Facebook Google Twitter Vk Yandex Mail.ru

Fight Or Flight - Its Over - таба, видео

Печатать
Просмотров: 152
INTRO:

Lead:
E|---------------------|
B|---------------------|
G|---------------------|
D|--7*-----------------|
A|------------7*-------|
D|-------5*--------5*--|

Rythm:
E|---------------------|
B|---------------------|
G|---------------------|
D|---------------------|
A|--0-0--0----0-0--0---|
D|--0-0--0----0-0--0---|
    . .  .    . .  .

PRE-VERSE 1:

Both Guitars:
E|---------------------------------------------------------|
B|---------------------------------------------------------|
G|---------------------------------------------------------|
D|--7----0----3----0----3-2-0-3-7----0----3----0----3-2-0--|
A|--7----0----3----0----3-2-0-3-7----0----3----0----3-2-0--|
D|--7----0----3----0----3-2-0-3-7----0----3----0----3-2-0--|

E|----------------------------------------------|
B|----------------------------------------------|
G|----------------------------------------------|
D|--7----0----3----0----3-2-0-3-7----0----3~----|
A|--7----0----3----0----3-2-0-3-7----0----3~----|
D|--7----0----3----0----3-2-0-3-7----0----3~----|
                

VERSE:
E|-------0~---0~-------0~---------|
B|--------------------------0~----|
G|----------2~------------2~------|
D|--------------------------------|
A|--0~----------------------------|
D|----------------3~--------------|


PRECHORUS:
E|-------------------------------------------|
B|-------------------------------------------|
G|-------------------------------------------|
D|--10-10-10-10-10-10-10-10-2-2-2-2-2-2-2-2--|
A|--10-10-10-10-10-10-10-10-2-2-2-2-2-2-2-2--|
D|--10-10-10-10-10-10-10-10-2-2-2-2-2-2-2-2--|


CHORUS:
E|---------------------------------------------------------------------------|
B|---------------------------------------------------------------------------|
G|---------------------------------------------------------------------------|
D|--7-7-7-7-7-7-7-7-3-3-3-3-3-3-3-3-10-10-10-10-10-10-10-10-2-2-2-2-2-2-2-2--|
A|--7-7-7-7-7-7-7-7-3-3-3-3-3-3-3-3-10-10-10-10-10-10-10-10-2-2-2-2-2-2-2-2--|
D|--7-7-7-7-7-7-7-7-3-3-3-3-3-3-3-3-10-10-10-10-10-10-10-10-2-2-2-2-2-2-2-2--|


PRE-VERSE 2:

Both Guitars:
E|---------------------------------------------------------|
B|---------------------------------------------------------|
G|---------------------------------------------------------|
D|--7----0----3----0----3-2-0-3-7----0----3----0----3-2-0--|
A|--7----0----3----0----3-2-0-3-7----0----3----0----3-2-0--|
D|--7----0----3----0----3-2-0-3-7----0----3----0----3-2-0--|

E|---------------------------|
B|---------------------------|
G|---------------------------|
D|--7----0----3----0----3-2--|
A|--7----0----3----0----3-2--|
D|--7----0----3----0----3-2--|


BRIDGE:

Rythm:
E|---------------------------------------------------------|
B|---------------------------------------------------------|
G|---------------------------------------------------------|
D|--7----0----3----0----3-2-0-3-7----0----3----0----3-2-0--|
A|--7----0----3----0----3-2-0-3-7----0----3----0----3-2-0--|
D|--7----0----3----0----3-2-0-3-7----0----3----0----3-2-0--|

E|---------------------------------------------------------|
B|---------------------------------------------------------|
G|---------------------------------------------------------|
D|--7----0----3----0----3-2-0-3-7----0----3----0----3-2----|
A|--7----0----3----0----3-2-0-3-7----0----3----0----3-2----|
D|--7----0----3----0----3-2-0-3-7----0----3----0----3-2----|

Lead part/mini solo at 2:26: 
E|--------------------------------------------------------------------|
B|--------------------------------------------------------------------|
G|--14v---------------------------------14v---------------------------|
D|--------12----15----12----15-14-12-15-------12----15----12----15-14-|
A|--------------------------------------------------------------------|
D|--------------------------------------------------------------------|

Acoustic:
E|---------------------------|
B|---------------------------|
G|---------------------------|
D|--3---3-3-3-3-3-3---3-0~---|
A|--3---3-3-3-3-3-3---3-0~---|
D|--3---3-3-3-3-3-3---3-0~---|


ACOUSTIC OUTRO:
E|--0-0-0-0-0-0-0-0-----------------0-0-0-0-0-0-0-0-----------------0--|
B|--1-1-1-1-1-1-1-1-----------------1-1-1-1-1-1-1-1-----------------1~-|
G|--2-2-2-2-2-2-2-2-5-5-5-5-5-5-5-5-0-0-0-0-0-0-0-0-4-4-4-4-4-4-4-4-2~-|
D|--2-2-2-2-2-2-2-2-3-3-3-3-3-3-3-3-2-2-2-2-2-2-2-2-2-2-2-2-2-2-2-2-2~-|
A|--0-0-0-0-0-0-0-0-3-3-3-3-3-3-3-3-3-3-3-3-3-3-3-3-2-2-2-2-2-2-2-2-0~-|
D|------------------3-3-3-3-3-3-3-3-----------------2-2-2-2-2-2-2-2----|


* = Harmonic
. = Palm Mute
~ = Let note ring out
v = Vibrato
Добавлено: 02.12.2015
Другие материалы по этой песне:
  • Аккорды и текст

Страница создана 02.12.2015
http://primanota.ru/fight-or-flight/its-over-chords.htm
Привет, Гость.
Предлагаем пройти революционный курс по гитаре.
Подарок от PrimaNota.Ru, забирай!