PrimaNota.ru - самый крупный в мире бесплатный архив песенных текстов, аккордов, табулатур и нот


Fight Or Flight - Emphatic - таба, видео

Регистрация Запомнить меня
Войти через:  Facebook Google Twitter Vk Yandex Mail.ru

Fight Or Flight - Emphatic - таба, видео

Печатать
Просмотров: 254
Fight Or Flight: Emphatic

Transcribed by: mysticguitar77

YouTube Username: MysticGuitar77

Date last modified: July 25, 2013

Tuning: Drop C# (C#,G#,C#,F#,A#,D#)

Intro (light distortion)
D#|---------------------------------------|
A#|---------------------------------------|
F#|----------------------------------5----|
C#|-7--7--7-7-7-7--7-7-8--8--8-8-8-8-x--8-|
G#|-5--5--5-5-5-5--5-5-5--5--5-5-5-5-5--5-|
C#|---------------------------------------|

D#|---------------------------0~-----|
A#|----------------------------------|
F#|----------------------------------|
C#|-7--7--7-7-7-7--7-7-8--8-------8~-|
G#|-5--5--5-5-5-5--5-5-5--5----------|
C#|----------------------------------|

Riff 1   "I have been your voice before..."
D#|---------------------------------------|
A#|---------------------------------------|
F#|----------------------------------5----|
C#|-7--7--7-7-7-7--7-7-8--8--8-8-8-8-x--8-|
G#|-5--5--5-5-5-5--5-5-5--5--5-5-5-5-5--5-|
C#|---------------------------------------|

D#|---------------------------------------|
A#|---------------------------------------|
F#|-------------------------------------5-|
C#|-7--7--7-7-7-7--7-7-8--8--8-8-8-8-8--x-|
G#|-5--5--5-5-5-5--5-5-5--5--5-5-5-5-5--5-|
C#|---------------------------------------|

D#|---------------------------------------|
A#|---------------------------------------|
F#|----------------------------------5----|
C#|-7--7--7-7-7-7--7-7-8--8--8-8-8-8-x--8-|
G#|-5--5--5-5-5-5--5-5-5--5--5-5-5-5-5--5-|
C#|---------------------------------------|

D#|------------------------0~------|
A#|--------------------------------|
F#|--------------------------------|
C#|-7--7--7-7-7-7--7-7-8--------8~-|
G#|-5--5--5-5-5-5--5-5-5-----------|
C#|--------------------------------|
                       ^ let this chord ring out 2nd time through

Play Riff 1 x2   "I have been your choice before..."

Riff 2   "Shatter me with broken words..."
D#|-------------------------------------------------|
A#|-------------------------------------------------|
F#|-7-7-7-7---7-7-7-7--7--7-5-5-5-5---5-5-5-5--5--5-|
C#|-x-x-x-x---x-x-x-x--x--x-x-x-x-x---x-x-x-x--x--x-|
G#|-5-5-5-5---5-5-5-5--5--5-5-5-5-5---5-5-5-5--5--5-|
C#|-------------------------------------------------|

D#|------------------------------------------|
A#|------------------------------------------|
F#|------------------------------------------|
C#|-8-8-8-8---8-8-8-8--8--8-5---7--1-x-x-x-x-|
G#|-5-5-5-5---5-5-5-5--5--5-5---7--1-x-x-x-x-|
C#|-------------------------5---7--1-x-x-x-x-|

Riff 3   "Say you're lost, but I'm on my own..."
D#|-------------------------------------------------------------|
A#|-------------------------------------------------------------|
F#|-------------------------------------------------------------|
C#|-0--x-x-8--8-8-8-8-8h10-10-10-10--10-10-8h10-10-10-10--10-10-|
G#|-0--x-x-8--8-8-8-8-8h10-10-10-10--10-10-8h10-10-10-10--10-10-|
C#|-0--x-x-8--8-8-8-8-8h10-10-10-10--10-10-8h10-10-10-10--10-10-|

D#|---------------------------------------------------------------|
A#|---------------------------------------------------------------|
F#|---------------------------------------------------------------|
C#|-0--x-x-8--8-8-10--10-10-10--10-10-10-10--10-10-10-10-10-10-10-|
G#|-0--x-x-8--8-8-10--10-10-10--10-10-10-10--10-10-10-10-10-10-10-|
C#|-0--x-x-8--8-8-10--10-10-10--10-10-10-10--10-10-10-10-10-10-10-|

D#|-------------------------------------------|
A#|-------------------------------------------|
F#|-------------------------------------------|
C#|-0--x-x-8--8-8-10--10-10-10-10-10-10-10-10-|
G#|-0--x-x-8--8-8-10--10-10-10-10-10-10-10-10-|
C#|-0--x-x-8--8-8-10--10-10-10-10-10-10-10-10-|

D#|----------------------------------|
A#|----------------------------------|
F#|----------------------------------|
C#|-0--x-x-8--8-8-1--1-1-1-1-1-1-1-1-|
G#|-0--x-x-8--8-8-1--1-1-1-1-1-1-1-1-|
C#|-0--x-x-8--8-8-1--1-1-1-1-1-1-1-1-|

Fill 1
D#|-----------------|
A#|-----------------|
F#|-----------------|
C#|-0~--------------|
G#|-0~--------------|
C#|-0~--------------|

Play Riff 1 x1   "You can fake your truth, I'm sure..."
Play Riff 2 x1   "Shatter me with broken words..."
Play Riff 3 x1   "Say you're lost, but I'm on my own..."

Riff 3 ending alteration:
D#|---------------------------------|
A#|---------------------------------|
F#|---------------------------------|
C#|-1-1-1-1-1-1-1-1-1-1-1-1-1-1-1-1-|  the last chord simply gets extended
G#|-1-1-1-1-1-1-1-1-1-1-1-1-1-1-1-1-|  for an extra measure
C#|-1-1-1-1-1-1-1-1-1-1-1-1-1-1-1-1-|

Riff 4   "Love can see..."
D#|-------------------------------------|
A#|-------------------------------------|
F#|-------------------------------------|
C#|-5--5-5-5-5-5--5-5-0--0-0-0-0-0--0-0-|
G#|-5--5-5-5-5-5--5-5-0--0-0-0-0-0--0-0-|
C#|-5--5-5-5-5-5--5-5-0--0-0-0-0-0--0-0-|

D#|-------------------------------------|
A#|-------------------------------------|
F#|-------------------------------------|
C#|-1--1-1-1-1-1--1-1-3--3-3-3-3-3--3-3-|
G#|-1--1-1-1-1-1--1-1-3--3-3-3-3-3--3-3-|
C#|-1--1-1-1-1-1--1-1-3--3-3-3-3-3--3-3-|

Play Riff 4 x2   "Love can bring..."

Fill 2   "...leave you broken..."
D#|-----------------------|
A#|-----------------------|
F#|-----------------------|
C#|-3-3---3-3---3-3---3-3-|
G#|-3-3---3-3---3-3---3-3-|
C#|-3-3---3-3---3-3---3-3-|

Riff 5   "Say you're lost, but I'm on my own..."
D#|----------------------------------|
A#|-----------------3--3-3-3-3-3-3-3-|
F#|--------5--5-5-5-2--2-2-2-2-2-2-2-|
C#|-2--x-x-5--5-5-5-0--0-0-0-0-0-0-0-|
G#|-2--x-x-3--3-3-3-0--0-0-0-0-0-0-0-|
C#|-2--x-x----------0--0-0-0-0-0-0-0-|

D#|---------------------------------------------------|
A#|---------------------------------------------------|
F#|--------5--5-5-7-5-7-5---5-------------------------|
C#|-2--x-x-5--5-5---------7---7-5-7-5---5-------------|
G#|-2--x-x-3--3-3---------------------7---7-5-7-5-3---|
C#|-2--x-x------------------------------------------5-|

D#|-------------------------------------|
A#|-------------------------------------|
F#|--------5--5-5-7--7-7-7---7---7--/10-|
C#|-2--x-x-5--5-5-7--7-7-7---x---x---x--|
G#|-2--x-x-3--3-3-5--5-5-5-0h5-0h5--/8--|
C#|-2--x-x--------0--0-0-0--------------|

D#|---------------------------------------------------|
A#|---------------------------------------------------|
F#|--------5--5-5-------------------------------------|
C#|-2--x-x-5--5-5-3--3-3-3-3-3-3-3-3-3-3-3-3-3-3-3-0~-|
G#|-2--x-x-3--3-3-3--3-3-3-3-3-3-3-3-3-3-3-3-3-3-3-0~-|
C#|-2--x-x--------3--3-3-3-3-3-3-3-3-3-3-3-3-3-3-3-0~-|

Enjoy!!
Добавлено: 29.10.2013
Другие материалы по этой песне:
  • Аккорды и текст

Страница создана 29.10.2013
http://primanota.ru/fight-or-flight/emphatic-chords.htm
Привет, Гость.
Предлагаем пройти революционный курс по гитаре.
Подарок от PrimaNota.Ru, забирай!