PrimaNota.ru - самый крупный в мире бесплатный архив песенных текстов, аккордов, табулатур и нот


Fight Like Apes - Im Beginning To Think You Prefer Beverly Hills 90210 To Me - бас-таба, видео

Регистрация Запомнить меня
Войти через:  Facebook Google Twitter Vk Yandex Mail.ru

Fight Like Apes - Im Beginning To Think You Prefer Beverly Hills 90210 To Me - бас-таба, видео

Печатать
Просмотров: 113
Fight Like Apes - I'm Beginning to Think You Prefer Beverly Hills 90210 To Me

http://www.fightlikeapesmusic.com/

x - Mute
/ - Slide Up

Intro:

G---------------------------------------4-5-4-------|
D-5-x-x-5-x-x-5-x-x-55-6-7-x-x-7-x-x-7-------7-5----|
A---------------------------------------------------|
E---------------------------------------------------|

G--------------------------------------------------|
D-----------------------------------------------4--|
A-7-x-x-7-x-x-7-x-x-7-x-5-3-x-x-3-x-x-3-x-x-3-x----|
E--------------------------------------------------|


Verse 1:

G---------------------------------------4-5-4------|
D-5-x-x--5-x-x-5-x-x-55-6-7-x-x-7-x-x-7-------7-5--|
A--------------------------------------------------|
E--------------------------------------------------|

G--------------------------------------------------|
D-----------------------------------------------4--|
A-7-x-x-7-x-x-7-x-x-7-x-5-3-x-x-3-x-x-3-x-x-3-x----|
E--------------------------------------------------|

G---------------------------------------4-5-4------|
D-5-x-x--5-x-x-5-x-x-55-6-7-x-x-7-x-x-7-------7-5--|
A--------------------------------------------------|
E--------------------------------------------------|

G--------------------------------------------------|
D--------------------------------------------------|
A-7-x-x-7-x-x-7-x-x-7-x-5-3-x-x-3-x-x-/15-15-14----|
E--------------------------------------------------|

Chorus:

G----------------------------------------------------------|
D----------------------------------------------------------|
A------------------------------777777-777777-333333-333333-|
E--333333-333333-555555-555555-----------------------------|


Verse 2:

G---------------------------------------4-5-4------|
D-5-x-x--5-x-x-5-x-x-55-6-7-x-x-7-x-x-7-------7-5--|
A--------------------------------------------------|
E--------------------------------------------------|

G--------------------------------------------------|
D-----------------------------------------------4--|
A-7-x-x-7-x-x-7-x-x-7-x-5-3-x-x-3-x-x-3-x-x-3-x----|
E--------------------------------------------------|

G---------------------------------------4-5-4------|
D-5-x-x--5-x-x-5-x-x-55-6-7-x-x-7-x-x-7-------7-5--|
A--------------------------------------------------|
E--------------------------------------------------|

G--------------------------------------------------|
D--------------------------------------------------|
A-7-x-x-7-x-x-7-x-x-7-x-5-3-x-x-3-x-x-/15-15-14----|
E--------------------------------------------------|


Chorus:

G----------------------------------------------------------|
D----------------------------------------------------------|
A------------------------------777777-777777-333333-333333-|
E--333333-333333-555555-555555-----------------------------|


Solo:

G--------------------------------------------4-5-4------|
D-5-x-x--55-x-x-55-x-x-555-6-7-x-x-77-x-x-77-------7-5--|
A-------------------------------------------------------|
E-------------------------------------------------------|

G-----------------------------------------------------------|
D---------------------------------------------------------4-|
A-7-x-x-77-x-x-77-x-x-77-x-x-5-3-x-x-33-x-x-33-x-x-33-x-x---|
E-----------------------------------------------------------|


Verse 3:

Same as solo. Repeat Twice

Bridge:

G-----7-----7---7--------12-------12----12--|
D-5-5---5-5---5----10-10----10-10----10-----|
A-------------------------------------------|
E-------------------------------------------|

G-------11-------11----11-------12-------12----12--|
D-12-12----12-12----12----10-10----10-10----10-----|
A--------------------------------------------------|
E--------------------------------------------------|

Outro:

G-------------------------------------|
D-------------------------------------|
A----------33333333-55555555-33333333-|	x 4
E-33333333----------------------------|
Добавлено: 23.04.2012
Другие материалы по этой песне:
  • Аккорды и текст

Страница создана 23.04.2012
http://primanota.ru/fight-like-apes/im-beginning-to-think-you-prefer-beverly-hills-90210-to-me-chords.htm
Привет, Гость.
Предлагаем пройти революционный курс по гитаре.
Подарок от PrimaNota.Ru, забирай!