PrimaNota.ru - самый крупный в мире бесплатный архив песенных текстов, аккордов, табулатур и нот


Fight Like Apes - Battlestations - бас-таба, видео

Регистрация Запомнить меня
Войти через:  Facebook Google Twitter Vk Yandex Mail.ru

Fight Like Apes - Battlestations - бас-таба, видео

Печатать
Просмотров: 114
Fight Like Apes - Battlestations

Intro: Played Staccato (Short hits)

G---------------------------------------------------------------------|
D-------5-5-5-5-5-----------------------------------------------------|
A-7-7-7------------5-5-5-7-7-7-7-77--2-2-2-3-3-3-3-3--3-3-3-----------|	x2
E-----------------------------------------------------------3-3-3-3-3-|

Verse 1:

G---------------------------------------------------------------------|
D-------5-5-5-5-5-----------------------------------------------------|
A-7-7-7------------5-5-5-7-7-7-7-77--2-2-2-3-3-3-3-3--3-3-3-----------|	x2
E-----------------------------------------------------------3-3-3-3-3-|


Pre-chorus:

G-----------------------------------------------------------------|
D-----------------------------------------------------------------|
A-7-7-7-7-7-7-7-7-5-5-5-5-5-5-5-5-3-3-3-3-3-3-3-3-2-2-2-2-2-2-2-2-|
E-----------------------------------------------------------------|

G--------------------------------------------------------------------------|
D--------------------------------------------------------------------------|
A---------------------------------3-3-3-3-3-3-3-3-/15-15-15-14-14-14-14-14-|
E-5-5-5-5-5-5-5-5-3-3-3-3-3-3-3-3------------------------------------------|


Verse 2: Played Normally

G---------------------------------------------------------------------|
D-------5-5-5-5-5-----------------------------------------------------|
A-7-7-7------------5-5-5-7-7-7-7-77--2-2-2-3-3-3-3-3--3-3-3-----------|
E-----------------------------------------------------------3-3-3-3-3-|

Pre-chorus:

G-----------------------------------------------------------------|
D-----------------------------------------------------------------|
A-7-7-7-7-7-7-7-7-5-5-5-5-5-5-5-5-3-3-3-3-3-3-3-3-2-2-2-2-2-2-2-2-|
E-----------------------------------------------------------------|

G---------------------------------------------------------------------|
D---------------------------------------------------------------------|
A---------------------------------3-3-3-3-3-3-3-3--3-3-3-3-3-3-3-6-7--|
E-5-5-5-5-5-5-5-5-3-3-3-3-3-3-3-3-------------------------------------|


G-----------------------------------------------------------------|
D-----------------------------------------------------------------|
A-7-7-7-7-7-7-7-7-5-5-5-5-5-5-5-5-3-3-3-3-3-3-3-3-2-2-2-2-2-2-2-2-|
E-----------------------------------------------------------------|

G-----------------------------------------------------------------------------|
D-----------------------------------------------------------------------------|
A---------------------------------3-3-3-3-3-3-3-3--3-/15-15-15-14-14-14-14-10-|
E-5-5-5-5-5-5-5-5-3-3-3-3-3-3-3-3---------------------------------------------|


Break/Verse 3:

G---------------------------------------------------------------------|
D-------5-5-5-5-5-----------------------------------------------------|
A-7-7-7------------5-5-5-7-7-7-7-77--2-2-2-3-3-3-3-3--3-3-3-----------|	x4
E-----------------------------------------------------------3-3-3-3-3-|


'Cause I don't feel Like playing'

G-----------------------------------------------------------------|
D-----------------------------------------------------------------|
A-7-7-7-7-7-7-7-7-3-3-3-3-3-3-3-3-----------------5-5-5-5-5-5-6-6-|	x2
E---------------------------------3-3-3-3-3-3-3-3-----------------|

Outro:

G----------------------------------------------------------|
D----------------------------------------------------------|
A-77-5-7--5-7-5--33-2-3--2-3-2---------------55-3-5--3-5-6-|	x2
E------------------------------33-2-3--2-3-2---------------|


G---------------------------------------------------------------------|
D---------------------------------------------------------------------|
A-7-7-7-7-7-7-7-7-3-3-3-3-3-/15-15-15-----------------5-5-5-5-5-5-6-6-|	x2
E-------------------------------------3-3-3-3-3-3-3-3-----------------|

G-----------------------------------------------------------|
D-----------------------------------------------------------|
A-77-5-7--5-7-5--33-2-3--2-3-2---------------55-3-5--3-5-6--|
E------------------------------33-2-3--2-3-2----------------|


G-----------------------------------------------------------|
D-----------------------------------------------------------|
A-77-5-7--5-7-5--33-2-3--2-3-2---------------5-5-5-5-5-2----|
E------------------------------33-2-3--2-3-2-------------0--|
Добавлено: 10.07.2012
Другие материалы по этой песне:
  • Аккорды и текст

Страница создана 10.07.2012
http://primanota.ru/fight-like-apes/battlestations-chords.htm
Привет, Гость.
Предлагаем пройти революционный курс по гитаре.
Подарок от PrimaNota.Ru, забирай!