PrimaNota.ru - самый крупный в мире бесплатный архив песенных текстов, аккордов, табулатур и нот


Fifty Four - Burning - таба, видео

Регистрация Запомнить меня
Войти через:  Facebook Google Twitter Vk Yandex Mail.ru

Fifty Four - Burning - таба, видео

Печатать
Просмотров: 104
band: Fifty Four
song: Burning

tabber: John Cukras
email: riffreaper@yahoo.com

tuning: normal

Riff 1:  Guitar 1                                                Guitar 2 (11's)
E------------------------------------------------------------|-------------------------------------------------------------------------|
B------------------------------------------------------------|-------------------------------------------------------------------------|
G------------------------------------------------------------|-------------------------------------------------------------------------|
D------------------------------------------------------------|--77-7-9-77-7-9/11-1111-11-111111-1111-77-7-9-77-7-9-7/4-4-444-44--------|
A------------------------------------------------------------|-------------------------------------------------------------------------|
E-1-0-11-1-0-1-11111-0-22-2-0-22-2-0-2-1-1-1111-2-1 x's 4----|----------------------------------------------------------------- x's 3--|

Riff 2: Guitar 2: Riff 1 x's 2 with this riff.
E--------------------------------------------------------------|
B--------------------------------------------------------------|
G--------------------------------------------------------------|
D--------------------------------------------------------------|
A-33-3-0-33-3-0-44444-55555-33-3-0-33-3-0-4/3-3-3333-4/3-------|
E-11-1-0-11-1-0-22222-33333-11-1-0-11-1-0-2/1-1-1111-2/1 x's 2-|

Riff 3:
E--------------------------------------|
B--------------------------------------|
G--------------------------------------|
D--------------------------------------|
A-3--3--3--3---4/3-33-4/3-33-5-6-------|
E-1--1--1--1---2/1-11-2/1-11-3-4 x's 8-|
pm             ... .. ... .. . .

Riff 2

Riff 3

Riff 2

Riff 4:
E---------------------------------------------------------------------------------------|
B---------------------------------------------------------------------------------------|
G---------------------------------------------------------------------------------------|
D---------------------------------------------------------------------------------------|
A-6-66-6-66-666-5-3--6-66-6-66-666-5-8--6-66-6-66-666-5-11--5-55-5-55-555-3-33-3-33-333-|
E-4-44-4-44-444-3-1--4-44-4-44-444-3-6--4-44-4-44-444-3-9---3-33-3-33-333-1-11-1-11-111-|

Riff 1: till end.
Добавлено: 12.06.2012
Другие материалы по этой песне:
  • Аккорды и текст

Страница создана 12.06.2012
http://primanota.ru/fifty-four/burning-chords.htm
Привет, Гость.
Предлагаем пройти революционный курс по гитаре.
Подарок от PrimaNota.Ru, забирай!