PrimaNota.ru - самый крупный в мире бесплатный архив песенных текстов, аккордов, табулатур и нот


Fififf Teeners - Space For Rent - таба, видео

Регистрация Запомнить меня
Войти через:  Facebook Google Twitter Vk Yandex Mail.ru

Fififf Teeners - Space For Rent - таба, видео

Печатать
Просмотров: 77
Уроки эстрадного вокала в Санкт-Петербурге
-------------------------------------------------------------------------------
                             SPACE FOR RENT - 5:15ers 
-------------------------------------------------------------------------------
Tuning: E A D G B e

Tempo: 120bpm - 4/4


Intro: 

    F#                            A
e|------------------------|(4x)|------------------------|(2x)
B|------------------------|    |------------------------|
G|------------------------|    |------------------------|
D|-----4----4----4----4---|    |-----7----7----7----7---|
A|------------------------|    |------------------------|
E|--2----2----2----2------|    |--5----5----5----5------|

   D                                    C#

e|------------------------------------------------------|
B|------------------------------------------------------|
G|------------------------------------------------------|
D|----12----12----12----12----12----12----11----11------|
A|------------------------------------------------------|
E|--10----10----10----10----10----10----9----9----------|


Verses:

    F#                            A
e|------------------------|(4x)|------------------------|(2x)
B|------------------------|    |------------------------|
G|------------------------|    |------------------------| GUITAR #1
D|-----4----4----4----4---|    |-----7----7----7----7---|
A|------------------------|    |------------------------|
E|--2----2----2----2------|    |--5----5----5----5------|
            "Your thoughts are dirty...."

e|------------------------------------------------------| (Slide)
B|------------------------------------------------------|
G|--3----------------------3-----/6---------------------| GUITAR #2
D|------------------------------------------------------|
A|------------------------------------------------------|
E|------------------------------------------------------|

   D                                    C#

e|------------------------------------------------------|
B|------------------------------------------------------|
G|------------------------------------------------------| GUITAR #1
D|----12----12----12----12----12----12----11----11------|
A|------------------------------------------------------|
E|--10----10----10----10----10----10----9----9----------|
    "And you don't know what to do" 


e|------------------------------------------------------| (Slide)
B|------------------------------------------------------|
G|------------------------------------------------------| GUITAR #2
D|--4~--------------------------------------------------|
A|------------------------------------------------------|
E|------------------------------------------------------|


************************************

| /   slide up
| \   slide down
| h   hammer-on
| p   pull-off
| ~   vibrato
| +   harmonic
| x   Mute note
| b   Bend
| pb  Pre-bend
| br  Bend release
| pbr Pre-bend release
| brb Bend release bend

************************************
Добавлено: 02.11.2015
Другие материалы по этой песне:
  • Аккорды и текст

Страница создана 02.11.2015
http://primanota.ru/fififf-teeners/space-for-rent-chords.htm
Привет, Гость.
Предлагаем пройти революционный курс по гитаре.
Подарок от PrimaNota.Ru, забирай!