PrimaNota.ru - самый крупный в мире бесплатный архив песенных текстов, аккордов, табулатур и нот


Fiestar - Youre Pitiful - таба, видео

Регистрация Запомнить меня
Войти через:  Facebook Google Twitter Vk Yandex Mail.ru

Fiestar - Youre Pitiful - таба, видео

Печатать
Просмотров: 82
-------------------------------------------------------------------------------
                             You're Pitiful - Fiestar
-------------------------------------------------------------------------------
Tabbed by: Kelby381
E-mail: Kelbyluk@hotmail.com

Tuning: Standard

                             Strum
e|--------7---------------7----6----|------------5-----------------10------------|
B|------5---5------------------0----|----------7---7-------------8----8----------|
G|----5-------5---------5------5----|--------7-------7---------9--------9--------|
D|--------------------4--------4----|------5--------------7/10-------------------|
A|--0---------------5----------5----|--------------------------------------------|
E|----------------------------------|--------------------------------------------|

                             Strum                                        Strum
e|------------------7--8-------7------------|-------------------------------0----|
B|--10------10-----------------7---------7--|-----7------7-----7---7--------0----|
G|-----9-----------------------8--8--8h9----|--------7-----7-----7----------1----|
D|-------10--------------------9------------|----------7-----7--------------0----|
A|--9--------------------------9------------|-----7-------------------------2----|
E|-----------------------------7------------|-------------------------------0----|


************************************

| /   slide up
| \   slide down
| h   hammer-on
| p   pull-off
| ~   vibrato
| +   harmonic
| x   Mute note
| b   Bend
| pb  Pre-bend
| br  Bend release
| pbr Pre-bend release
| brb Bend release bend

************************************
Добавлено: 20.12.2015
Другие материалы по этой песне:
  • Аккорды и текст

Страница создана 20.12.2015
http://primanota.ru/fiestar/youre-pitiful-chords.htm
Привет, Гость.
Предлагаем пройти революционный курс по гитаре.
Подарок от PrimaNota.Ru, забирай!