PrimaNota.ru - самый крупный в мире бесплатный архив песенных текстов, аккордов, табулатур и нот


Fiend Without A Face - Tsunami - таба, видео

Регистрация Запомнить меня
Войти через:  Facebook Google Twitter Vk Yandex Mail.ru

Fiend Without A Face - Tsunami - таба, видео

Печатать
Просмотров: 127
Уроки эстрадного вокала в Санкт-Петербурге
Song: Tsunami
Arstis: Fiend Without A Face
Album: Fiend Without A Face

Standard Tuning EADGBE

Tabbed by Kevin Robertson


Riff A
2---2-0----------------------------2-5-3-2-3-2-|
--------3---3-2-0---0--------0-2-3-------------|
-----------------------2-0-2-------------------|
-----------------------------------------------|
-----------------------------------------------|
-----------------------------------------------|

--2-0------------------------------------0-2-3-|
-----3*/5/3--3-2------------------0-2-3--------|
------------------4*/6/4--4-2-0-2--------------|
-----------------------------------------------|
-----------------------------------------------|
-----------------------------------------------|

Riff B
------------------------------------|
------------------------------------|
------------------------------------|
-----4-----4---4-------4-----4---4--|
-5-5---5-5---5-----5-5---5-5---5----|
------------------------------------|


------------------------------------|
------------------------------------|
---------0--------------------------|
-----4-------4---4------4-----4---0-|
-2-2---2---2---2----2-2---2-2---2---|
------------------------------------|


-----------------------------------|
-----------------------------------|
-----------------------------------|
-----4-----4---0-------4-----4---0-|
-0-0---0-0---0-----0-0---0-0---0---|
-----------------------------------|


--------------------------------|
--------------------------------|
-------------------------0------|
---------4-----4----4------4----|
-----5-----5-----5----5------5--|
-3-3---3-----3----3-------------|

--------------------------------|
--------------------------------|
-----------------7-----------7\-|
-----4-----4---4-------4-----4\-|
-5-5---5-5---5-----5-5---5-5-5\-|
--------------------------------|

Riff C
--2-2---2---2---0---0---------0------0-0---2-0----------------2---2-3-|
3-----3---3---2---0---0-2-3-2-0-2--5-----5-----3-2-3--3-2-3-5---5-----|
----------------------------------------------------------------------|
----------------------------------------------------------------------|
----------------------------------------------------------------------|
----------------------------------------------------------------------|


--2-2---2---2---0---0---------0------0-0---2-0----2-2---2---2--2-2-2-|
3-----3---3---2---0---0-2-3-2-0-2--5-----5------3-----3---3----3-3-3-|
---------------------------------------------------------------------|
---------------------------------------------------------------------|
---------------------------------------------------------------------|
---------------------------------------------------------------------|


--2-2---2----3-2-0-----2-2---2---2---2------3-3---2-0-----------2---2---|
3-----3---3--5-3-2---3-----3---3---3---3--5-----5------3-2-3--3---3---3-|
------------------------------------------------------------------------|
------------------------------------------------------------------------|
------------------------------------------------------------------------|
------------------------------------------------------------------------|


---14-14----14------------------14-14----14--------------|
15-------15----15--17-15-14--15-------15----15--17-15-14-|
---------------------------------------------------------|
---------------------------------------------------------|
---------------------------------------------------------|
---------------------------------------------------------|

---15-15----15------------------14-14----14-14-|
17-------17----17--19-17-14--15-------15----15-|
-----------------------------------------------|
-----------------------------------------------|
-----------------------------------------------|
-----------------------------------------------|

then
Riff A
Riff B
Riff C

*bend
\slide

comments, suggestions? = kev417@hotmail.com  or... just comment.

http://www.myspace.com/fiendatl
Добавлено: 23.07.2012
Другие материалы по этой песне:
  • Аккорды и текст

Страница создана 23.07.2012
http://primanota.ru/fiend-without-a-face/tsunami-chords.htm
Привет, Гость.
Предлагаем пройти революционный курс по гитаре.
Подарок от PrimaNota.Ru, забирай!