PrimaNota.ru - самый крупный в мире бесплатный архив песенных текстов, аккордов, табулатур и нот


Field Mouse - A Place You Return To In A Dream - таба, видео

Регистрация Запомнить меня
Войти через:  Facebook Google Twitter Vk Yandex Mail.ru

Field Mouse - A Place You Return To In A Dream - таба, видео

Печатать
Просмотров: 103
A Place You Return To In a Dream:
Standard Tuning

Chords are written as major and minor but except for the bridge no 3rds are present
in any chords so the major/minor is just what is implied from the key/melodies.

Intro/Chorus:
Guitar one:
-------------------------------------------------------------------|
-12-12-------12-12------12-12-------12-12--------------------------|
-------11-11-------11-11------11-11-------11-11--9--9-11b12r11--7--|
-------------------------------------------------------------------|
-------------------------------------------------------------------|
-------------------------------------------------------------------|

Guitar two: Alternates between these 2 phrases:
G9                       Bm9                     Em9
-------------------------------------------------------------------|
-------------------------------------------------------------------|
-----------------------------------------11--11--11--11--11-11-----|
-7-7-7-7-7-7-7-7-11-11-11-11-11-11-11-11--9---9---9---9---9--9-----|
-5-5-5-5-5-5-5-5--9--9--9--9--9--9--9--9--7---7---7---7---7--7-----|
-3-3-3-3-3-3-3-3--7--7--7--7--7--7--7--7---------------------------|

G9                Bm9                    Em9         D9
--------------------------------------------------------------------|
--------------------------------------------------------------------|
-----------------------------------------11--11--11----9---9--9-----|
-7-7-7-7-7-7-7-7-11-11-11-11-11-11-11-11--9---9---9----7---7--7-----|
-5-5-5-5-5-5-5-5--9--9--9--9--9--9--9--9--7---7---7----5---5--5-----|
-3-3-3-3-3-3-3-3--7--7--7--7--7--7--7--7----------------------------|

Verse 1: Both guitars x2

 Em9       C9           Bm9         D9
---------------------------------------|
---------------------------------------|
-11----------------------------9-------|
--9--x-16--12--x-16--11--x-16--7--x-16-|
--7--------10---------9--------5-------|
------------8---------7----------------|

Verse 1 Tag: Both guitars
G9    Am9    Bm9       G9   Am9    Bm9
--------------------------------------|
--------------------------------------|
--------------------------------------|
-7-7-7-9-9-9-11--------7-7-7-9-9-9-11-|
-5-5-5-7-7-7--9--------5-5-5-7-7-7--9-|
-3-3-3-5-5-5--7--------3-3-3-5-5-5--7-|


Verse 2: Just 1 guitar.
Hold each note out for the length of each chord
-----------------------------------------------------------|
-----------------------------------------------------------|
-9-----11------12-----5h7------9------11------12-----11/14-|
-----------------------------------------------------------|
-----------------------------------------------------------|
-----------------------------------------------------------|


Bridge:
---------------------------------------|
-3----3---3----3----3----3----1----1---|
-0----0---4----4----0----0----0----0---|
-2----2---4----4----2----2----2----2---|
-3----3---2----2----3----3----0----0---|
---------------------------------------|
Добавлено: 13.08.2015
Другие материалы по этой песне:
  • Аккорды и текст

Страница создана 13.08.2015
http://primanota.ru/field-mouse/place-you-return-to-in-a-dream-chords.htm
Привет, Гость.
Предлагаем пройти революционный курс по гитаре.
Подарок от PrimaNota.Ru, забирай!