PrimaNota.ru - самый крупный в мире бесплатный архив песенных текстов, аккордов, табулатур и нот


Fidlar - White On White - аккорды и текст, таба, видео

Регистрация Запомнить меня
Войти через:  Facebook Google Twitter Vk Yandex Mail.ru

Fidlar - White On White - аккорды и текст, таба, видео

Печатать
Просмотров: 182
Уроки эстрадного вокала в Санкт-Петербурге
Авторы: FIDLAR

White On White
Fidlar
hi this is my first tab and I did it all by ear so it may not be exactly right but I'm almost 
positive it is so enjoy


I usually use all barre chords when playing



all the riffs used:


intro riff: 
e|---------------------------------------------------------------------------|
B|---------------------------------------------------------------------------|
G|---------------------------------------------------------------------------|
D|---------------------------------------------------------------------------|
A|---------------------------------------------------------------------------|
E|----3--3h6-3--3--3h6-3--1-6(If you want you can bend this note.)-----------|


e|---------------------------------------------------------------------------|
B|---------------------------------------------------------------------------|
G|---------------------------------------------------------------------------|
D|---------------------------------------------------------------------------|
A|---------------------------------------------------------------------------|
E|----3--3h6-3--3--3h6-3--1-2------------------------------------------------|  



second riff:

e|----/10----8-6---6--8b--9--8--6--------------------------------------------|
B|---------------8-----------------8-----------------------------------------|
G|---------------------------------------------------------------------------|
D|---------------------------------------------------------------------------|
A|---------------------------------------------------------------------------|
E|---------------------------------------------------------------------------|


third riff:

e|---3--6--8--6--3----3--6--8--6--3-----6----8----10b------------------------|
B|---------------------------------------------------------------------------|
G|---------------------------------------------------------------------------|
D|---------------------------------------------------------------------------|
A|---------------------------------------------------------------------------|
E|---------------------------------------------------------------------------|



-------------------------------------------------------------------------------------------------------


Intro riff x2


Verse 1:

G
Got no job got no money got no place to be

Bb
So they said there gonna make a man outta me

G
Got no job got go money got no place to be

Bb
So they said there gonna make a man outta me

G  F#  F
ah

second riff x1  (plays along with the chords)

   G                  Bb           G


Verse 2:

G
Got no job got no money got no place to be

Bb
Took me out set me up sent me overseas

G
Got no job got no money got no place to be

Bb
Now its time to serve your country no

G  F#  F
ah


Interlude:

Second riff x1


Third riff x1


Intro riff x4



Verse 3:

G
Got a job got money got a place to be

Bb
Run though the desert trying to find the beach

G
Got a job got money got a place to be

Bb
Run though the desert trying to find me me me no

G  F#  F
Ah


second riff x1

third x1


end on a G






************************************

| /   slide up
| \   slide down
| h   hammer-on
| p   pull-off
| ~   vibrato
| +   harmonic
| x   Mute note
| b   Bend
| pb  Pre-bend
| br  Bend release
| pbr Pre-bend release
| brb Bend release bend

************************************

Добавлено: 27.07.2014
Другие материалы по этой песне:

Страница создана 24.08.2013
http://primanota.ru/fidlar/white-on-white-chords.htm
Привет, Гость.
Предлагаем пройти революционный курс по гитаре.
Подарок от PrimaNota.Ru, забирай!