PrimaNota.ru - самый крупный в мире бесплатный архив песенных текстов, аккордов, табулатур и нот


FICTION JUNCTION - Tsubasa Reservoir Chronicle - Dreamscape - таба, видео

Регистрация Запомнить меня
Войти через:  Facebook Google Twitter Vk Yandex Mail.ru

FICTION JUNCTION - Tsubasa Reservoir Chronicle - Dreamscape - таба, видео

Печатать
Просмотров: 72
intro chords: C D C D C D E E
intro plucking:
e|---------------------------------------------------------------------------|
B|---------------------------------------------------------------------------|
G|---0-----0----0--------------------0-----0----0----------------------------|
D|-0-----0-----0---0-4---0-4---04--0-----0-----0---0-4---0-4---04------------|
A|3----3-----3----0----0-----0----3----3-----3----0----0-----0---------------|
E|---------------------------------------------------------------------------|

e|---------------------------------------------------------------------------|
B|---------------------------------------------------------------------------|
G|---0-----0----0------------------------------------------------------------|
D|-0-----0-----0---0-4---0-4---04----2-----2----2----2-----2----2------------|
A|3----3-----3----0----0-----0-----2-----2-----2---2-----2-----2-------------|
E|--------------------------------4----4-----4----0----0-----0---------------|

verse 1 chords: C D E E x4
verse 1 plucking:
e|---------------------------------------------------------------------------|
B|-----------------------------------------------------------0---------------|
G|---0-----0----0----------------------------------------------1-------------|
D|-0-----0-----0---0-4---0-4---04----2-----2----2----2-----2----2------------|
A|3----3-----3----0----0-----0-----2-----2-----2---2-----2-------------------|
E|--------------------------------4----4-----4----0----0---------------------|

e|---------------------------------------------------------------------------|
B|---------------------------------------------------------------------------|
G|---0-----0----0------------------------------------------------------------|
D|-0-----0-----0---0-4---0-4---04----2-----2----2----2-----2----2------------|  x3
A|3----3-----3----0----0-----0-----2-----2-----2---2-----2-----2-------------|
E|--------------------------------4----4-----4----0----0-----0---------------|

verse 2 chords: C D E E x2
verse 2 plucking:
e|---------------------------------------------------------------------------|
B|-----------------------------------------------------------0---------------|
G|---0-----0----0----------------------------------------------1-------------|
D|-0-----0-----0---0-4---0-4---04----2-----2----2----2-----2----2------------|
A|3----3-----3----0----0-----0-----2-----2-----2---2-----2-------------------|
E|--------------------------------4----4-----4----0----0---------------------|

e|---------------------------------------------------------------------------|
B|---------------------------------------------------------------------------|
G|---0-----0----0------------------------------------------------------------|
D|-0-----0-----0---0-4---0-4---04----2-----2----2----2-----2----2------------|
A|3----3-----3----0----0-----0-----2-----2-----2---2-----2-----2-------------|
E|--------------------------------4----4-----4----0----0-----0---------------|

chorus 1 chords: C D E E C D E C D E E C D Esus4

break 1 chords: D(power chord) C#aug Caug E x2
break 1 plucking:
e|---0-----0----0----0-----0----0----0-----0----0----0-----0----0------------|
B|-3-----3-----3---2-----2-----2---1-----1-----1---0-----0-----0-------------|
G|4----4-----4----2----2-----2----2----2-----2----1----1-----1---------------|
D|---------------------------------------------------------------------------|  x2
A|---------------------------------------------------------------------------|
E|---------------------------------------------------------------------------|

verse 3: C D E E C D C/E(continue to break 2)

break 2 chords: C/E(continue from verse 3) D E E C D E C D

chorus 2 chords: C D E E x4

bridge chords: C D E E


Verse 1:
C                  D
Mita koto no nai kusa no umi ga 
    E
Gin iro ni yurete zawameite 
C                      D             E
Yume to utsutsu no sakaime atari no keshiki

          C        D
Kimi ni deau tame? 
         E
Soretomo mada minai dareka no hitomi no tame 
       C           D
Kaze o wakete yuku 
  E
Dream Scape


Verse 2:
C                  D
Mou sugu naru ne mezamashi no oto 
     E
Demo sono saki mo mada yume ka mo shirenai ne 
C                               D                     E
Daiji na mono wa doko ni itatte amari kawaranai yo ne


Chorus 1:
C                       D
Mezametemo mada koko ni iyou to omou yo 
E
(Sittin' in the silence...everlasting night breeze...) 
C                     D               
Sore ga yuuki to yu mono kato mo omou yo


E                
Sittin' in the silence...everlasting night breeze... 
     C           D           E
(I believe...I deceive...I relieve...) 
E
Kurasugite mienai dake sa... ... 
C                 D
Sittin' in the silence...In my...


Break 1: D(power chord) C#aug Caug E x2


Verse 3:
C                            D
Nakitaku nakute hotte atta mune no sasakure ni 
    E
Ima goro oikakerarete iki mo tsukenakute 
C                              D                              C/E(continue to break 2)
Shigami tsuiteita shinjitsu ga boroboro ni karete ochiru made


Break 2: C/E(continue from verse 3) D E E C D E C D
    C           D
Ima chotto mienai dake sa... ...


Chorus 2:
C                 D          E
Sittin' in the silence...everlasting night breeze... 
                          C                                D
Genjitsu datte yume datte kimi o mayowaseru dake dakara sa 
    E
Everlasting night breeze..

C                                D                       E
Sakamichi no ue no magari kado, ikutsu demo sono saki ni yukitai 

Sittin' in the silence... 
C                           D               E
Ongaku no naka ni shika nai fuukei no mukou he 

Kurasugite mienai dake sa...



Bridge:
C
Yume no tsuzuki ni wa yume ga 
     D
Nana iro no meiro mitai ni 
  E
Onkai no nai kusabue ni utau omitsukeru tame ni



Verse 2:
C                 D
Hirosugite me gakuran demo 
   E
Utaisugite nodo ga kare temo 
C                  D
Mita koto no nai kusa no umi o 
    E
Tatoe kimi gai naku natte mo


Verse 2: C D E
E
Kurasugite mienai dake sa... ...


Verse 2: C D E
E
Sittin' in the silence...


Verse 2:
C                 D       E
Sittin' in the silence... Everlasting night breeze... 

Kurasugite mienai dake sa... ... 
C                 D
Sittin' in the silence... 

Dream Scape
Добавлено: 07.06.2016
Другие материалы по этой песне:
  • Аккорды и текст

Страница создана 07.06.2016
http://primanota.ru/fiction-junction/tsubasa-reservoir-chronicle-dreamscape-chords.htm
Привет, Гость.
Предлагаем пройти революционный курс по гитаре.
Подарок от PrimaNota.Ru, забирай!