PrimaNota.ru - самый крупный в мире бесплатный архив песенных текстов, аккордов, табулатур и нот


Fiction Family - Throw It Away - таба, видео

Регистрация Запомнить меня
Войти через:  Facebook Google Twitter Vk Yandex Mail.ru

Fiction Family - Throw It Away - таба, видео

Печатать
Просмотров: 123
-----------------------------------------------------------------------------
                              THROW IT AWAY           FICTION FAMILY
-----------------------------------------------------------------------------

Tabbed by:hurricaneherman
Tuning:Standard--Capo 3rd


~INTRO~


e|--------------------------------|
B|--------------------------------|
G|--------------------------------|
D|1-/-2-/-4-------5---------------|
A|2---------------7---------------|
E|2---------------7---------------|

e|----------------------------------------------------------------|
B|----------------------------------------------------------------|
G|------4-------4-------4-------4-------2-------2-------2-------2-|
D|--5-------5-------5-------5-------4-------4-------4-------4-----|
A|----------------------------------------------------------------|
E|0---0---0---0---0---0---0---0---0---0---0---0---0---0---0---0---|

e|----------------------------------------------------------------|
B|----------------------------------------------------------------|
G|------2-------2-------2-------2-------0-------0-------1-------1-|
D|--1-------1-------1-------1-------2-------2-------2-------2-----|
A|----------------------------------------------------------------|
E|0---0---0---0---0---0---0---0---0---0---0---0---0---0---0---0---|

e|----------------------------------------------------------------|
B|----------------------------------------------------------------|
G|------4-------4-------4-------4-------2-------2-------2-------2-|
D|--5-------5-------5-------5-------4-------4-------4-------4-----|
A|----------------------------------------------------------------|
E|0---0---0---0---0---0---0---0---0---0---0---0---0---0---0---0---|

e|----------------------------------------------------------------|
B|----------------------------------------------------------------|
G|------2-------2-------2-------2-------0-------0-------0-------0-|
D|--1-------1-------1-------1-------2-------2-------2-------2-----|
A|----------------------------------------------------------------|
E|0---0---0---0---0---0---0---0---0---0---0---0---0---0---0---0---|


~VERSE~


e|----------------------------------------------------------------|
B|----------------------------------------------------------------|
G|----------------------------------------------------------------|
D|------5-------2-------2-------2---1---2---4---2-------2-------2-|X[2]
A|--2-------2-------2-------2-----------------------2-------2-----|
E|0---0---0---0---0---0---0---0---2---2---2---2---0---0---0---0---|
       I think about the love I live a figure made of clay
    I think about the things I've lost the things I give away
e|----------------------------------------------------------------|
B|----------------------------------------------------------------|
G|------5-------2-------2-------2-------5-------2-------2-------2-|
D|--2-------2-------2-------2-------2-------2-------2-------2-----|
A|0---0---0---0---0---0---0---0---0---0---0---0---0---0---0---0---|
E|----------------------------------------------------------------|
    And when I'm in a certain mood I search the halls and look
e|----------------------------------------------------------------|
B|----------------------------------------------------------------|
G|----------------------------------------------------------------|
D|------5-------2-------2-------2---1---2---4---2-------2-------2-|
A|--2-------2-------2-------2-----------------------2-------2-----|
E|0---0---0---0---0---0---0---0---2---2---2---2---0---0---0---0---|
       One night I found these magic words in a magic book


~CHORUS~


e|----------------------------------------------------------------|
B|----------------------------------------------------------------|
G|------5-------2-------2-------2---------------------------------|
D|--2-------2-------2-------2-----------5-------2-------2-------2-|
A|0---0---0---0---0---0---0---0-----2-------2-------2-------2-----|
E|--------------------------------0---0---0---0---0---0---0---0---|
                 Throw it away throw it away
e|----------------------------------------------------------------|
B|----------------------------------------------------------------|
G|--------------------------------------0-------0-------1-------1-|
D|--1---2---1---1---1---2---1---1---2-------2-------2-------2-----|
A|----------------------------------------------------------------|
E|2---2---2---2---2---2---2---2---0---0---0---0---0---0---0---0---|
        Give your love live your life each and every day
e|----------------------------------------------------------------|
B|----------------------------------------------------------------|
G|------5-------2-------2-------2-------5-------2-------2-------2-|
D|--2-------2-------2-------2-------2-------2-------2-------2-----|
A|0---0---0---0---0---0---0---0---0---0---0---0---0---0---0---0---|
E|----------------------------------------------------------------|
       Keep your hands wide open let the sun shine through
e|----------------------------------------------------------------|
B|----------------------------------------------------------------|
G|----------------------------------------------------------------|
D|------5-------2-------2-------2---1---2---4---2-------2-------2-|
A|--2-------2-------2-------2-----------------------2-------2-----|
E|0---0---0---0---0---0---0---0---2---2---2---2---0---0---0---0---|
      Cause you can never lose a thing if it belongs to you


~VERSE~


e|----------------------------------------------------------------|
B|----------------------------------------------------------------|
G|----------------------------------------------------------------|
D|------5-------2-------2-------2---1---2---4---2-------2-------2-|X[2]
A|--2-------2-------2-------2-----------------------2-------2-----|
E|0---0---0---0---0---0---0---0---2---2---2---2---0---0---0---0---|
  There's a hand to rock the cradle there's a hand to help us stand
      With a gentle kind of motion as it moves across the land
e|----------------------------------------------------------------|
B|----------------------------------------------------------------|
G|------5-------2-------2-------2-------5-------2-------2-------2-|
D|--2-------2-------2-------2-------2-------2-------2-------2-----|
A|0---0---0---0---0---0---0---0---0---0---0---0---0---0---0---0---|
E|----------------------------------------------------------------|
  And two hands are clenched and open to survive the love it brings
e|----------------------------------------------------------------|
B|----------------------------------------------------------------|
G|----------------------------------------------------------------|
D|------5-------2-------2-------2---1---2---4---2-------2-------2-|
A|--2-------2-------2-------2-----------------------2-------2-----|
E|0---0---0---0---0---0---0---0---2---2---2---2---0---0---0---0---|
        So keep your hands wide open if you need anything


~CHORUS~


e|----------------------------------------------------------------|
B|----------------------------------------------------------------|
G|------5-------2-------2-------2---------------------------------|
D|--2-------2-------2-------2-----------5-------2-------2-------2-|
A|0---0---0---0---0---0---0---0-----2-------2-------2-------2-----|
E|--------------------------------0---0---0---0---0---0---0---0---|
                 Throw it away throw it away
e|----------------------------------------------------------------|
B|----------------------------------------------------------------|
G|--------------------------------------0-------0-------1-------1-|
D|--1---2---1---1---1---2---1---1---2-------2-------2-------2-----|
A|----------------------------------------------------------------|
E|2---2---2---2---2---2---2---2---0---0---0---0---0---0---0---0---|
        Give your love live your life each and every day
e|----------------------------------------------------------------|
B|----------------------------------------------------------------|
G|------5-------2-------2-------2-------5-------2-------2-------2-|
D|--2-------2-------2-------2-------2-------2-------2-------2-----|
A|0---0---0---0---0---0---0---0---0---0---0---0---0---0---0---0---|
E|----------------------------------------------------------------|
       Keep your hands wide open let the sun shine through
e|----------------------------------------------------------------|
B|----------------------------------------------------------------|
G|----------------------------------------------------------------|
D|------5-------2-------2-------2---1---2---4---2-------2-------2-|
A|--2-------2-------2-------2-----------------------2-------2-----|
E|0---0---0---0---0---0---0---0---2---2---2---2---0---0---0---0---|
      Cause you can never lose a thing if it belongs to you


~OUTRO-CHORUS~


e|----------------------------------------------------------------|
B|----------------------------------------------------------------|
G|------5-------2-------2-------2---------------------------------|
D|--2-------2-------2-------2-----------5-------2-------2-------2-|
A|0---0---0---0---0---0---0---0-----2-------2-------2-------2-----|
E|--------------------------------0---0---0---0---0---0---0---0---|
                 Throw it away throw it away
e|----------------------------------------------------------------|
B|----------------------------------------------------------------|
G|--------------------------------------0-------0-------1-------1-|
D|--1---2---1---1---1---2---1---1---2-------2-------2-------2-----|
A|----------------------------------------------------------------|
E|2---2---2---2---2---2---2---2---0---0---0---0---0---0---0---0---|
        Give your love live your life each and every day
e|----------------------------------------------------------------|
B|----------------------------------------------------------------|
G|------5-------2-------2-------2-------5-------2-------2-------2-|
D|--2-------2-------2-------2-------2-------2-------2-------2-----|
A|0---0---0---0---0---0---0---0---0---0---0---0---0---0---0---0---|
E|----------------------------------------------------------------|
       Keep your hands wide open let the sun shine through
e|----------------------------------------------------------------|
B|----------------------------------------------------------------|
G|----------------------------------------------------------------|
D|------5-------2-------2-------2---1---2---4---2-------2-------2-|
A|--2-------2-------2-------2-----------------------2-------2-----|
E|0---0---0---0---0---0---0---0---2---2---2---2---0---0---0---0---|
      Cause you can never lose a thing if it belongs to you
e|----------------------------------------------------------------|
B|----------------------------------------------------------------|
G|----------------------------------------------------------------|
D|------2-------2-------2-------2-------2-------------------------|
A|--2-------2-------2-------2-------2-------2---------------------|
E|0---0---0---0---0---0---0---0---0---0---0---2-------------------|
        No you can never lose a thing if it belongs to you
e|----------------------------------------------------------------|
B|----------------------------------------------------------------|
G|------4-------4-------4-------4-------2-------2-------2-------2-|
D|--5-------5-------5-------5-------4-------4-------4-------4-----|
A|----------------------------------------------------------------|
E|0---0---0---0---0---0---0---0---0---0---0---0---0---0---0---0---|

e|----------------------------------------------------------------|
B|----------------------------------------------------------------|
G|------2-------2-------2-------2-------0-------0-------1-------1-|
D|--1-------1-------1-------1-------2-------2-------2-------2-----|
A|----------------------------------------------------------------|
E|0---0---0---0---0---0---0---0---0---0---0---0---0---0---0---0---|

e|----------------------------------------------------------------|
B|----------------------------------------------------------------|
G|------4-------4-------4-------4-------2-------2-------2-------2-|
D|--5-------5-------5-------5-------4-------4-------4-------4-----|
A|----------------------------------------------------------------|
E|0---0---0---0---0---0---0---0---0---0---0---0---0---0---0---0---|

e|----------------------------------------------------------------|----|
B|----------------------------------------------------------------|----|
G|------2-------2-------2-------2---------------------------------|----|
D|--1-------1-------1-------1-----2-----------------------5-------|2---|
A|--------------------------------2-------1---2-/-4-------x-------|2---|
E|0---0---0---0---0---0---0---0---1-----------------------7-------|0---|

=============================================================================
/ = slide up

I hope you enjoy this tab and that it is easy to follow. If you do like this
tab a rating is welcome and if you have something to say/correct, comments
are welcome as well.

Peace, Love, I'm out.
Добавлено: 03.07.2012
Другие материалы по этой песне:
  • Аккорды и текст

Страница создана 03.07.2012
http://primanota.ru/fiction-family/throw-it-away-chords.htm
Привет, Гость.
Предлагаем пройти революционный курс по гитаре.
Подарок от PrimaNota.Ru, забирай!