PrimaNota.ru - самый крупный в мире бесплатный архив песенных текстов, аккордов, табулатур и нот


Fiction Family - Elements Combined - таба, видео

Регистрация Запомнить меня
Войти через:  Facebook Google Twitter Vk Yandex Mail.ru

Fiction Family - Elements Combined - таба, видео

Печатать
Просмотров: 106
Fiction Family
Elements Combined
Fiction Family -- 2009

Tuning - Standard (E A D G B E)
*Chords are listed at end of song

Intro - Piano
e|-----------------------------------------------------|
B|------------------------5-4h5-2--OR-----13-12h13-10--|
G|---8--5--4--2---8--5--5--------------12--------------|
D|--10--7--5--3--10--7---------------------------------|
A|--10--7--5--3--10--7---------------------------------|
E|---8--5--3--1---8--5---------------------------------|

Verse 1
Fadd9                 Gsus4
To the girl I told to run away
Fadd9                     Gsus4
The ghost I saw a hundred times a day
Fadd9                      Am7
You weren't like me no you weren't afraid

Chorus
        Gsus4 Fadd9 C        Gsus4
You are e-----le----ments combined
Gsus4   Fadd9 C     Gsus4
Earth,  air,  fire, wine
Am7 C             Fadd9
Someday you'll be mine

Post-Chorus 1
Fadd9
Elements combined

Interlude
Guitar
C5 Am G F - 2x

Piano
e|--------------------------12--------------------|
B|----9-5---5-4h5-2--OR--------13----13-12h13-10--|
G|--5-----5--------------12-------12--------------|[2x]
D|------------------------------------------------|
A|------------------------------------------------|
E|------------------------------------------------|

Verse 2 - Same as Verse 1
You stuck around, but we didn't fly
Weighed down by all I hid behind my eyes
I only hope that you realize

Chorus 

Post-Chorus 2
Fadd9
Someday you'll be mine

Bridge
Asus2
I'll bury all excuses

Burn all the reasons why
D                           D7   
I cant be everything you want

And everything you need

Post-Bridge
C5 Am G        F
        You're elements combined
C5 Am G        F
        You're elements combined
C5 Am G        F
        You're elements combined
C5 Am G F

Verse 3 - Same as Verse 1 & 2
We talk a lot but it's always small
Tiny bricks that make a giant wall
I hope these words are a wrecking ball

Chorus - 2x

*Chords Used
    C5  Am  G  F  C  Fadd9  Gsus4  Am7  Asus2  D  D7   
e|----------------3----3------3-----3-----0----2-----|
B|----------------1----1------1-----1-----0----3--1--|
G|---8--5---4--2--0----2------0-----0-----2----2--2--|
D|--10--7---5--3--2----3------0-----2-----2----0--0--|
A|--10--7---5--3--3-----------2-----0-----0-------x--|
E|---8--5---3--1--------------3-------------------2--|
Добавлено: 16.06.2012
Другие материалы по этой песне:
  • Аккорды и текст

Страница создана 16.06.2012
http://primanota.ru/fiction-family/elements-combined-chords.htm
Привет, Гость.
Предлагаем пройти революционный курс по гитаре.
Подарок от PrimaNota.Ru, забирай!