PrimaNota.ru - самый крупный в мире бесплатный архив песенных текстов, аккордов, табулатур и нот


Ffx-2 - Sen No Kotoba - таба, видео

Регистрация Запомнить меня
Войти через:  Facebook Google Twitter Vk Yandex Mail.ru

Ffx-2 - Sen No Kotoba - таба, видео

Печатать
Просмотров: 95
E--3----5------------0--|------------------------|--3---3g5---------------|
B-----------------3-----|--3--0-----1---------1--|--1----------------0--1-|
G--5-------5------------|--0-----0---------2-----|------------5-----------|
D----------3------------|-----------3------------|------------3-----------|
A--0--------------------|------------------------|--0---------------------|
D----------0------------|--2--------0------------|------------0-----------|


E------3---0--------0---|--8------------------|------------------------0-|
B--3-------1----------6-|----------------1----|--3--------1--------1-3---|
G--0-------0------------|-----------2---------|--0-----0---------0-------|
D----------3------------|-----------3---------|-----2--------------------|
A----------0------------|-----------3---------|--3-----------------------|
D--2-------0------------|---------------------|--------------------------|


E--0-----0--1------3----|--0--------0----------3--|--3-----1--------------|
B-----------------------|--------3----------1-----|-------------1----3----|
G-----1-----------------|-----0----------0--------|-----1-------1----0----|
D-----------------------|-------------------------|------------------3----|
A--3--------------------|--3----------------------|--3--------------------|
D-----------------------|-------------------------|-----------------------|


--0---------------------|------------------------|--------------0----1--0----|
--3---------1--1--1--0--|-----1---------------1--|--3--------3---------------|
--0------0--------------|------------------0-----|-----0--0------------------|
--2---------------------|--------2--3------------|---------------------------|
--3---------------------|-----0------------------|--------2------------------|
------------------------|--0---------------------|--2------------------------|


--------------------------|------------------------|----------------0--0----|
-----3--1-----------------|------------------1s----|--3-------3--------0----|
--------2--0-----------0--|--------0--2------------|--4----5--------------1-|
-----2--------------7-----|------------------------|------------------------|
--0--------------7--------|-----3------------------|------------------------|
--------------5-----------|--3---------------------|--5----------6----------|


---------------------0--|--1-----0--1-----3-----3--|----------------------|
--------0--1------3-----|--------------------------|-----1--1-------------|
--2---------------------|-----0--------------0-----|--------0-------------|
-----2------------------|--------------0-----------|----------------------|
--0---------------------|--3-----------------------|----------------------|
------------------------|--------------------------|--3-----3--------2----|


-------------------------|--------------0--1-----0--|--1--3--0-----8--------|
-------------------1--3--|-----3--1-----------3-----|-----------6-------6---|
--------------2----------|-----------0--------------|-----------------------|
--------2--3--3----------|--------2-----------------|-----------------------|
-----0--------3----------|--3-----------1-----------|--0--------------------|
--0----------------------|--------------------------|--------------6--------|


--0---------------------|------------------------|--------------0----1--0--|
--3---------1--1--1--0--|-----1---------------1--|--3--------3-------------|
--0------0--------------|------------------0-----|-----0--0----------------|
--2---------------------|--------2--3------------|-------------------------|
--3---------------------|-----0------------------|--------2----------------|
------------------------|--0---------------------|--2----------------------|


--------------------------|-----------------------|----------------0--0-----|
-----3--1-----------------|--------------------1--|--3-------3--------0-----|
--------2--0-----------0--|--------0--2-----------|--4----5--------------1--|
-----2--------------7-----|-----------------------|-------------------------|
--0--------------7--------|-----3-----------------|-------------------------|
--------------5-----------|--3--------------------|--5----------6-----------|


----------------------0-|--1-----0--1-----3-----3--|-----5----------------|
--------0--1--------3---|--------------------------|--------1-------------|
--2---------------------|-----0--------------0-----|--------0-------------|
-----2------------------|--------------0-----------|----------------------|
--0---------------------|--3-----------------------|----------------------|
------------------------|--------------------------|--3-----3--------2----|


----------------------|-----------------------1--|--0--------0--1--3----|
--1-------------1--3--|-----3--1--------1--3-----|--1--------------0----|
--2--------2----------|-----------0--1-----------|--0--------0--2-------|
--3-------------------|--------2-----------------|--2-----------0--2----|
--0-------------------|--3-----------------------|--3--------3----------|
--0-------------------|--------------3-----0-----|----------------------|


----------------------0--|----------------------|-----------------------0--|
--1--1--1--1--1----3-----|----------------------|--1--1--1--1--1-----3-----|
--------0--2-------------|-----0----------------|-----------------0--1-----|
-------------------------|--------2-------------|--------2--3--3-----2-----|
-----3-------------------|-----2-----------2----|-----0--------------------|
--3----------------------|--2-------------------|--0-----------------------|


-----1-----0--------------|---------------------|-------------------------|
-----------------3--1-----|--1-------------1----|--0--1--3--1----------0--|
-----------------------0--|--0------------------|--0----------------------|
--------------------0--0--|--2------------------|-------------------------|
--0-----2-----3-----------|---------3-----------|--------------0----3-----|
-----------------------2--|--3------------------|--2----------------------|


--3-------------------5--|------5---3---3---0---------------|
--1----1--0--------------|----------------------3---1---0---|
--2-------------5--5-----|----5---5---0---0---0---0---0---0-|
--0----------------------|--------------------------0-------|
--0----------------------|--0-------2-------3---------------|
--0----------6-----------|----------------------------------|


----------------------------------|----------------------------------|
--1---1-----1-------------0---0---|--1---1-----1-----1---1---1---3---|
----0-----0-----0-5---5-----------|----0-----0-----0---0-------0---0-|
--------------------0---0---0---0-|----------------------------------|
----------------------------------|--0-----0-----0---2-----2-----2---|
--3-----3-----3---5-------5-------|----------------------------------|


----------------------------------|--0---------------------------3---|
--1---1-----1-----0---0---5---6---|----3-1-0---1-----0---1---3-------|
----0-----0-----0---0---0---0---0-|----------0---0-2---0---0---0---0-|
----------------------------------|----------------------------------|
----------------------------------|--0-----0-----0---2-------2-------|
--3-----3-----3---5-------5-------|----------------------------------|


--0---0---3-0---0-----0---5---0---|--0---0---7---8---8-7---5---7-----|
----------------------------------|--------------------------------5-|
----0---0-----0-----0---0---0---0-|----0---0---0---------0-----------|
----------------------------------|--------------------------5---5---|
----------------------------------|--0-----0---0---0-----------------|
--3-----3-----3---5-----5---5-----|------------------5-----5---5-----|


--0---0---3---0-----------3-------|----------------------------------|
------------------3---3-----3---0-|--1---1---0---1---0---0---1---3---|
----0---0---0---0---0---0-----0---|----0---0---0---0---0---0---0---0-|
----------------------------------|----------------------------------|
----------------------------------|--0-----0---0---0-2-----2---2-----|
--3-----3-----3---5-----5---5-----|----------------------------------|


--0--0---3-0---0----0---5---0--|--0--0---7---8---8-7---5---7---0-|
--0--0---0-0---0----0---0---0--|--0--0---0-------0-0---0---0---0-|
--0--0---0-0---0----0---0---0--|--0--0---0-------0-0---0---0---0-|
-------------------------------|---------------------------------|
-------------------------------|--0----0---0---0-----------------|
--3----3-----3---5----5---5----|-----------------5---5---5---5---|


--0--0---3-0------------0------|--------------0---0-5---5-8----|
--0--0---0-0---3----3-------0--|--------1---1---------5--------|
--0--0---0-0---0----0---0---0--|--2---2---2-----5--------------|
-------------------------------|----2--------------------------|
-------------------------------|--0----------------------------|
--3----3-----3---5----5---5----|-------------------------------|


--L--3--3--3--3---5------|-------------0--1--0-----|--------------3---5-----|
-------------------------|----------1--1--------3--|-----1-----0--1---------|
--------------5-------5--|--0----2-----------------|--------0-----2-------5-|
-----5--5--5-------------|--0----------------------|--------0-----3---------|
-------------------------|-------------0-----------|--2-----3-----0---------|
-----5--5--5--3----------|--5----------------------|------------------------|


-----------------3---3--|--L--5----7--7----8--5--|--L--------------8--7--|
-------0-----3-------1--|--L----------6----------|-------0----1----------|
--0-------5--0-------0--|--L--5----7--5----------|-------0----0----9--7--|
--0---------------------|------------------------|-------0----0----------|
-------------2-------0--|--L----------0----------|-----------------------|
--5---------------------|------------------------|-------2----3----------|


--L--3----1--0----5--5--|--L---------0------0--|--L-----3--3--3---5------|
-------------1----------|-------3----1------0--|--L----------------------|
--L----------2----------|-------0----0------0--|--L-----------5-------5--|
-------------2----------|-------0----2---------|--------5--5-------------|
-------------0----------|-------2-----------2--|--L--0-------------------|
------------------------|----------------------|--------5--5--3-------3--|


-------------0-----------|--------------3----5-----|-----------------3---3--|
----------------6--5--3--|-----1-----0--1----------|-------0--1--3-------1--|
--0-------5--5-----------|--------0-----2-------5--|--0----------0-------0--|
--0----7-----------------|--------0-----3----------|--0---------------------|
-------------0--------0--|--2-----3-----0----------|-------------2-------0--|
--5-------5--------------|-------------------------|--5---------------------|


--L--5---7--7----8-------|--------------0----8--10--|--L--7----5-------------|
--L---------6-------10---|---L----------0-----------|-------------------0----|
--L---------5------------|--------------0-----------|----------------------5-|
------------0------------|--------10----------------|----------------2-------|
--L---------0------------|--------------8-----------|-------------0----------|
------------0------------|--------------------------|------------------------|


------------------------|--0----3----5--------|--L-----------------||
-----------0--1----3----|--0---------2--------|--------------------||
--------2-----2---------|--0---------2--------|--------------------||
-----0--------0---------|------------2--------|--------------------||
------------------------|------------0--------|--------------------||
--5-----------3---------|--5------------------|--------------------||
Добавлено: 10.06.2012
Другие материалы по этой песне:
  • Аккорды и текст

Страница создана 10.06.2012
http://primanota.ru/ffx-2/sen-no-kotoba-chords.htm
Привет, Гость.
Предлагаем пройти революционный курс по гитаре.
Подарок от PrimaNota.Ru, забирай!