PrimaNota.ru - самый крупный в мире бесплатный архив песенных текстов, аккордов, табулатур и нот


Fews - The Zoo - таба, видео

Регистрация Запомнить меня
Войти через:  Facebook Google Twitter Vk Yandex Mail.ru

Fews - The Zoo - таба, видео

Печатать
Просмотров: 173
FEWS - The Zoo
Self-released single via soundcloud (2014).

Band: https://www.facebook.com/FEWSXOXO
Song: https://soundcloud.com/fewsmusic/thezoo

Tabbed by Isaac Murguia, November 2014.
Originally uploaded to Ultimate-Guitar.com
Contact: www.youtube.com/Goadiroth

INTRO:
  Guitars 1 & 2 (first 2 times alone, then guitar 2 comes in)
e|-------------------------------------------|
B|-------------------------------------------|
G|--14-14-14-14-----14-14-14-14-----14-14----|
D|--------------12--------------12--------12-|
A|-------------------------------------------| [x4 Guitar 1]
E|-------------------------------------------| [x2 Guitar 2]

PART I:
  Guitar 1
e|-------------------------|-----------------------|
B|-------15----------15----|-----------------------|
G|-15-15----15-15-15----15-|-12-12-14-12-10-10-10--|
D|-------------------------|-----------------------|
A|-------------------------|-----------------------|
E|-------------------------|-----------------------| [x2]
  Guitar 2
e|------------------------------------------|
B|------------------------------------------|
G|-14-14-14-14-----14-14-14-14-----14-14----|
D|-------------12--------------12--------12-|
A|------------------------------------------|
E|------------------------------------------| [x2]

PART II: (repeat x2)
  Guitar 1
e|------------------------------------------|
B|------------------------------------------|
G|-14-14-14-14-----14-14-14-14-----14-14----|
D|-------------12--------------12--------12-|
A|------------------------------------------|
E|------------------------------------------| [x2]

e|-------------------------|-----------------------|
B|-------15----------15----|-----------------------|
G|-15-15----15-15-15----15-|-12-12-14-12-10-10-10--|
D|-------------------------|-----------------------|
A|-------------------------|-----------------------|
E|-------------------------|-----------------------| [x2]
  Guitar 2
e|----------------------------------------------------|
B|----------------------------------------------------|
G|-11-11-11-11--11-11-11-11--11-11-11--14-14-12-12-11-|
D|----------------------------------------------------|
A|----------------------------------------------------|
E|----------------------------------------------------| [x2]

e|------------------------------------------------|
B|------------------------------------------------|
G|-10-10-10-10--10-10-10-10--10-10-10--9-9-7-7-7--|
D|------------------------------------------------|
A|------------------------------------------------|
E|------------------------------------------------| [x2]

Repeat INTRO | Guitar 1 = x4
             | Guitar 2 = x3

VERSE: (Repeat x2)
  Guitar 1
e|------------------------------------------|
B|------------------------------------------|
G|-14-14-14-14-----14-14-14-14-----14-14----|
D|-------------12--------------12--------12-|
A|------------------------------------------|
E|------------------------------------------| [x4]
  Guitar 2
e|----------------------------------------------------|
B|----------------------------------------------------|
G|-11-11-11-11--11-11-11-11--11-11-11--14-14-12-12-11-|
D|----------------------------------------------------|
A|----------------------------------------------------|
E|----------------------------------------------------| [x2]

e|------------------------------------------------|
B|------------------------------------------------|
G|-10-10-10-10--10-10-10-10--10-10-10--9-9-7-7-7--|
D|------------------------------------------------|
A|------------------------------------------------|
E|------------------------------------------------| [x2]

Repeat PART I
Repeat INTRO (both guitars x2)
Repeat PART I

Repeat INTRO | Guitar 1 = x4
             | Guitar 2 = x3

Repeat VERSE
Repeat PART I
Repeat INTRO (both guitars x2)
Repeat PART I

OUTRO A:
  Guitar 1
            [x4]                                   [x2]
e|-x--x--x--x---x--x--x--x--|------------------------------------------------|
B|-10-10-10-10--10-10-10-10-|-------15----------15---------------------------|
G|-x--x--x--x---x--x--x--x--|-15-15----15-15-15----15--12-12-14-12-10-10-10--|
D|--------------------------|------------------------------------------------|
A|--------------------------|------------------------------------------------|
E|--------------------------|------------------------------------------------|

  Guitar 2                                                  [x4]
e|----------------------------------------------------|-------------|
B|----------------------------------------------------|-------------|
G|-14-14-14-14--14-14-14-14--14-14-14-14--14-12-12-11-|-11-11-11-11-|
D|----------------------------------------------------|-------------|
A|----------------------------------------------------|-------------|
E|----------------------------------------------------|-------------|
       [x4]
e|-------------|------------------------|
B|-------------|------------------------|
G|-10-10-10-10-|-10\7-777777-7\2-222222-|
D|-------------|------------------------|
A|-------------|------------------------|
E|-------------|------------------------|

For the last part, after one Bar, Guitar 1 does some crazed fast strumming
But if you wanna take the easy route, just do this: 

Repeat INTRO (both guitars x2)
Repeat PART I

Or if you wanna mimic what Guitar 1 is doing, it sounds like he's doing this:
  (" = tremolo)
e|-------------------------------24--|
B|-13"-//-15"-//-17"----17"/20"------|
G|-----------------------------------|
D|-----------------------------------|
A|-----------------------------------| not very accurate, but close I think?
E|-----------------------------------|

OUTRO B:
  Guitar 1
e|------------------------------------------|
B|------------------------------------------|
G|-14-14-14-14-----14-14-14-14-----14-14----|
D|-------------12--------------12--------12-|
A|------------------------------------------|
E|------------------------------------------| [x4]
  Guitar 2
e|------------------------------------------|
B|------------------------------------------|
G|-14----------------(14)-------------------|
D|------------------------------------------|
A|------------------------------------------|
E|------------------------------------------|

End. Please rate! :D
Добавлено: 16.08.2015
Другие материалы по этой песне:
  • Аккорды и текст

Страница создана 16.08.2015
http://primanota.ru/fews/zoo-chords.htm
Привет, Гость.
Предлагаем пройти революционный курс по гитаре.
Подарок от PrimaNota.Ru, забирай!